Face To Face

home > Face To Face

I'm trying Tab

Face To Face

Difficulty: nolevelnolevel

tuner correct add songbook print version text version save to e-mail
chordsukulelecavacokeyboardtabbassdrumsharmonicsflute Guitar Pro
chords

I'm trying

  		Intro:     

E |------------------------|
B |--10------10-----10-----|  Repete várias vezes
G |-------7-------7------7-|

B|-----------------------------|
G|---7-----9----11----12-------|  4 X
D|-----------------------------|
A|---5-----7-----9-----10------|
E|-----------------------------|

D5                     A5
 Four-year-old at play
                         B5
 Shot and killed today
                          G5
 Never even had a chance
D5                    A5
 Seventeen and high
                      B5
 Threw away his life
                      G5    
Has a gun to feel like he's a man

B|-----------------------------|
G|---7-----9----11----12-------|  2 X
D|-----------------------------|
A|---5-----7-----9-----10------|
E|-----------------------------|
  Can't have it any other way       
 
D5                A5
Laying in the street
                 B5
Asking for a drink
                  G5
Doesn't have a place to live
D5               A5
Pregnant at thirteen
                   B5
Still can hear the screams
                          G5
Something that she never will forget

B|-----------------------------|
G|---7-----9----11----12-------|  2 X
D|-----------------------------|
A|---5-----7-----9-----10------|
E|-----------------------------|
  Can't have it any other way         

E |-----------------------|
B |--10------10-----10----|  Repete várias vezes
G |------7-------7------7-|
  D5     A5   B5             G5
I'm trying to open my mind

D5      E5      D5      G5

G5
    So you can keep your faith
                             D5
    And I'll just walk away
                               A5
    There's no reason for me to stay

G5        D5        A5          2 X

B|-----------------------------|
G|---7-----9----11----12-------|  4 X
D|-----------------------------|
A|---5-----7-----9-----10------|
E|-----------------------------|
  Can't have it any other way         

E |-----------------------|
B |--10------10-----10----|  Repete várias vezes
G |------7-------7------7-|
   D5      A5   B5             G5
I'm trying to open my mind
   D5      A5   B5             G5
I'm trying to open my mind
D5       A5     B5    G5           D
   I'm trying to make my mind


_______________________________________________________
Contribuição: Fagner de Souza Accordi([email protected])
	  

Full key step upFull key step up
Half key step upHalf key step up
Half key step downHalf key step down
Full key step downFull key step down
Search Paypal
auto scroll beats size up size down change color hide chords drawings
tab show chords e-chords YouTube Clip e-chords hide all tabs e-chords go to top tab