Face To Face

home > Face To Face

Bright Lights Go Down Tab

Face To Face

Difficulty: nolevelnolevel

by robepoiel

tuner correct add songbook print version text version save to e-mail
chordsukulelecavacokeyboardtabbassdrumsharmonicsflute Guitar Pro
chords

Bright Lights Go Down

  		

Intro -  
(Bright lights go down, Bright lights go down...) 

 - Guitar 1 -  

e|---------------------------------| 
B|---------------------------------| 
G|--------7777777-999999999--------| 
D|--77777-7777777-999999999--------|  
A|--77777-5555555-777777777--------|   4x 
E|--55555--------------------------| 

 - Guitar 2 - 

e|---------------------------------| 
B|---------------------------------| 
G|--99999-77777-11111-99999-11-999-| 
D|--xxxxx-xxxxx-xxxxx-xxxxx-xx-xxx-| 
A|--77777-55555-99999-77777-99-777-|   4x 
E|---------------------------------| 

(If you don't stand for something, you'll fall for anything...) 

- Guitar 1 - 

e|---------------------------------| 
B|---------------------------------| 
G|--77777-77777-77777--------------| 
D|--77777-77777-77777-7777---------| 
A|--55555-55555-55555-7777---------| 2x 
E|--------------------5555---------| 

- Guitar 2 - 

e|----------------------------------------| 
B|----------------------------------------| 
G|-77777-77777-7777-9999------------------| 
D|-xxxxx-xxxxx-xxxx-xxxx-77777------------| 
A|-55555-55555-5555-7777-xxxxx------------| 2x 
E|-----------------------55555------------| 

(I made it up, Because it's what they say...) 

e|--------------------------------------------------------------| 
B|--------------------------------------------------------------| 
G|--7-7-7-7-4-4-4-4-7-7-7-7-4-4-4-4-7-7-7-7-4-4-4-4-999999------| 
D|--7-7-7-7-4-4-4-4-7-7-7-7-4-4-4-4-7-7-7-7-4-4-4-4-999999------| 
A|--5-5-5-5-2-2-2-2-5-5-5-5-2-2-2-2-5-5-5-5-2-2-2-2-777777------| 
E|--------------------------------------------------------------| 

(Until the bright lights go down, Bright lights go down...) 

e|---------------------------------| 
B|---------------------------------| 
G|--------7777777-999999999--------| 
D|--77777-7777777-999999999--------|  
A|--77777-5555555-777777777--------|   2x 
E|--55555--------------------------| 

 - Guitar 2 - 

e|---------------------------------| 
B|---------------------------------| 
G|--99999-77777-11111-99999-11-999-| 
D|--xxxxx-xxxxx-xxxxx-xxxxx-xx-xxx-| 
A|--77777-55555-99999-77777-99-777-|   2x 
E|---------------------------------| 

(They say there'll come a day...) 

e|---------------------------------| 
B|---------------------------------| 
G|--------77777-999999999----------| 
D|--77777-77777-999999999----------|  
A|--77777-55555-777777777----------|   
E|--55555--------------------------| 

 - Guitar 2 - 

e|---------------------------------| 
B|---------------------------------| 
G|--99999-77777-99999-11-99--------| 
D|--xxxxx-xxxxx-xxxxx-xx-xx--------| 
A|--77777-55555-77777-99-77--------| 
E|---------------------------------| 

(Until the bright lights go down...) 

e|---------------------------------| 
B|---------------------------------| 
G|--------7777777-999999999--------| 
D|--77777-7777777-999999999--------|  
A|--77777-5555555-777777777--------|   2x 
E|--55555--------------------------| 

 - Guitar 2 - 

e|---------------------------------| 
B|---------------------------------| 
G|--99999-77777-11111-99999-11-999-| 
D|--xxxxx-xxxxx-xxxxx-xxxxx-xx-xxx-| 
A|--77777-55555-99999-77777-99-777-|   
E|---------------------------------| 

(No atheists in a foxhole?, You never had nothing to lose...) 

e|---------------------------------| 
B|---------------------------------| 
G|--77777-77777-77777--------------| 
D|--77777-77777-77777-7777---------| 
A|--55555-55555-55555-7777---------| 2x 
E|--------------------5555---------| 

- Guitar 2 - 

e|----------------------------------------| 
B|----------------------------------------| 
G|-77777-77777-7777-9999------------------| 
D|-xxxxx-xxxxx-xxxx-xxxx-77777------------| 
A|-55555-55555-5555-7777-xxxxx------------| 2x 
E|-----------------------55555------------| 

(There's nothing left for you and I to say...) 

e|--------------------------------------------------------------| 
B|--------------------------------------------------------------| 
G|--7-7-7-7-4-4-4-4-7-7-7-7-4-4-4-4-7-7-7-7-4-4-4-4-999999------| 
D|--7-7-7-7-4-4-4-4-7-7-7-7-4-4-4-4-7-7-7-7-4-4-4-4-999999------| 
A|--5-5-5-5-2-2-2-2-5-5-5-5-2-2-2-2-5-5-5-5-2-2-2-2-777777------| 
E|--------------------------------------------------------------| 

(Until the bright lights go down, Bright lights go down...) 

e|---------------------------------| 
B|---------------------------------| 
G|--------7777777-999999999--------| 
D|--77777-7777777-999999999--------|  
A|--77777-5555555-777777777--------|   2x 
E|--55555--------------------------| 

 - Guitar 2 - 

e|---------------------------------| 
B|---------------------------------| 
G|--99999-77777-11111-99999-11-999-| 
D|--xxxxx-xxxxx-xxxxx-xxxxx-xx-xxx-| 
A|--77777-55555-99999-77777-99-777-|   2x 
E|---------------------------------| 

(They say there'll come a day...) 

e|---------------------------------| 
B|---------------------------------| 
G|--------77777-999999999----------| 
D|--77777-77777-999999999----------|  
A|--77777-55555-777777777----------|   
E|--55555--------------------------| 

 - Guitar 2 - 

e|---------------------------------| 
B|---------------------------------| 
G|--99999-77777-99999-11-99--------| 
D|--xxxxx-xxxxx-xxxxx-xx-xx--------| 
A|--77777-55555-77777-99-77--------| 
E|---------------------------------| 

(Until the bright lights go down...) 

e|---------------------------------| 
B|---------------------------------| 
G|--------7777777-999999999--------| 
D|--77777-7777777-999999999--------|  
A|--77777-5555555-777777777--------|   2x 
E|--55555--------------------------| 

 - Guitar 2 - 

e|---------------------------------| 
B|---------------------------------| 
G|--99999-77777-11111-99999-11-999-| 
D|--xxxxx-xxxxx-xxxxx-xxxxx-xx-xxx-| 
A|--77777-55555-99999-77777-99-777-|   
E|---------------------------------| 

Bridge - 
(Instrumental) 

e|----------------------------------------------------| 
B|----------------------------------------------------| 
G|-9/11-11-11-11-9/11-11-11-11-11\9-9-9-9-11\9-9-9-9--| 
D|-x-x--x--x--x--x-x--x--x--x--x-x--x-x-x-x-x--x-x-x--| 
A|-7/9--9--9--9--7/9--9--9--9--9-\7-7-7-7-9-\7-7-7-7--| 
E|----------------------------------------------------| 

e|--------------------------------------------------------| 
B|--------------------------------------------------------| 
G|-9/11-11-11-11-9/11-11-11-11-11\9-9-9-9-1111-1313-161616| 
D|-x-x--x--x--x--x-x--x--x--x--x-x--x-x-x-xxxx-xxxx-xxxxxx| 
A|-7/9--9--9--9--7/9--9--9--9--9-\7-7-7-7-9999-1111-141414| 
E|--------------------------------------------------------| 

(Bright lights go down, Bright lights go down....) 

e|----------| 
B|----------| 
G|----7-7---| 
D|--7-7-7---| 4x 
A|--7-5-9---| 
E|--5-------| 

(Bright lights go down, Bright lights go down....) 

e|---------------------------------| 
B|---------------------------------| 
G|--------7777777-999999999--------| 
D|--77777-7777777-999999999--------|  
A|--77777-5555555-777777777--------|   2x 
E|--55555--------------------------| 

 - Guitar 2 - 

e|---------------------------------| 
B|---------------------------------| 
G|--99999-77777-11111-99999-11-999-| 
D|--xxxxx-xxxxx-xxxxx-xxxxx-xx-xxx-| 
A|--77777-55555-99999-77777-99-777-|   2x 
E|---------------------------------| 

(They say there'll come a day...) 

e|---------------------------------| 
B|---------------------------------| 
G|--------77777-999999999----------| 
D|--77777-77777-999999999----------|  
A|--77777-55555-777777777----------|   
E|--55555--------------------------| 

 - Guitar 2 - 

e|---------------------------------| 
B|---------------------------------| 
G|--99999-77777-99999-11-99--------| 
D|--xxxxx-xxxxx-xxxxx-xx-xx--------| 
A|--77777-55555-77777-99-77--------| 
E|---------------------------------| 

(Until the bright lights go down...) 

e|---------------------------------| 
B|---------------------------------| 
G|--------7777777-999999999--------| 
D|--77777-7777777-999999999--------|  
A|--77777-5555555-777777777--------|  x 
E|--55555--------------------------| 

 - Guitar 2 - 

e|---------------------------------| 
B|---------------------------------| 
G|--99999-77777-11111-99999-11-999-| 
D|--xxxxx-xxxxx-xxxxx-xxxxx-xx-xxx-| 
A|--77777-55555-99999-77777-99-777-|   
E|---------------------------------| 

End -  

e|---------------------------------------| 
B|---------------------------------------| 
G|--------77777-77777-77777--------------| 
D|--44444-77777-77777-77777-77777--------| 
A|--44444-99999-55555-99999-77777--------| 
E|--22222-------------------55555--------| 

************************************ 

| /   slide up 
| \   slide down 
| h   hammer-on 
| p   pull-off 
| ~   vibrato 
| +   harmonic 
| x   Mute note 
| b   Bend 
| pb  Pre-bend 
| br  Bend release 
| pbr Pre-bend release 
| brb Bend release bend 

************************************ 
	  

Search Paypal
auto scroll beats size up size down change color hide chords drawings
tab show chords e-chords YouTube Clip e-chords hide all tabs e-chords go to top tab