Face To Face

home > Face To Face

Blind Tab

Face To Face

Difficulty: nolevelnolevel

tuner correct add songbook print version text version save to e-mail
chordsukulelecavacokeyboardtabbassdrumsharmonicsflute Guitar Pro
chords

Blind

  		Intro
e|-com distorção---distorção---------------------------------------------------|
B|---de violão-------pesada----------------------------------------------------|
G|------7-----5------7-----5---------------------------------------------------|
D|----3-7-3-5-5----3-7-3-5-5---------------------------------------------------|
A|----3-5-3-5-3----3-5-3-5-3---------------------------------------------------|
E|----1---1-3------1---1-3-----------------------------------------------------|

Refrão
e|-----------------------------------------------------------------------------|
B|-----------------------------------------------------------------------------|
G|-------5-------5-------------------------------------------------------------|
D|-7-3-5-5-7-3-5-5-7-----------------------------------------------------------|
A|-7-3-5-3-7-3-5-3-7-----------------------------------------------------------|
E|-5-1-3---5-1-3---5-----------------------------------------------------------|

Verso
e|-----------------------------------------------------------------------------|
B|-----------------------------------------------------------------------------|
G|---7-----5---7-----5---------------------------------------------------------|
D|-3-7-3-5-5-3-7-3-5-5---------------------------------------------------------|
A|-3-5-3-5-3-3-5-3-5-3---------------------------------------------------------|
E|-1---1-3---1---1-3-----------------------------------------------------------|

Refrão
e|-----------------------------------------------------------------------------|
B|-----------------------------------------------------------------------------|
G|-------5-------5-------5-----------------------------------------------------|
D|-7-3-5-5-7-3-5-5-7-3-5-5-----------------------------------------------------|
A|-7-3-5-3-7-3-5-3-7-3-5-3-----------------------------------------------------|
E|-5-1-3---5-1-3---5-1-3-------------------------------------------------------|

Solo
Guitar 1
e|-----------------------------------------------------------------------------|
B|-----------------------------------------------------------------------------|
G|---7-----5---7-----5---------------------------------------------------------|
D|-3-7-3-5-5-3-7-3-5-5---------------------------------------------------------|
A|-3-5-3-5-3-3-5-3-5-3---------------------------------------------------------|
E|-1---1-3---1---1-3-----------------------------------------------------------|

Solo
Guitar 2
e|-----------------------------------------------------------------------------|
B|-------5-5------------------5-5------------------5-5-------------------------|
G|-5-5-7-----7-7-5-5----5-5-7-----7-7-5-5----5-5-7-----7-7-5-5-4-4-2-0---------|
D|-----------------------------------------------------------------------------|
A|-----------------------------------------------------------------------------|
E|-----------------------------------------------------------------------------|

e|-----------------------------------------------------------------------------|
B|-------5-5-------8--------5-5-------8----------5-5-------8-6-5-6-56-5--------|
G|-5-5-7-----7-7-5-----5-5-7----7-7-5------5-5-7-----7-7-5---------------------|
D|-----------------------------------------------------------------------------|
A|-----------------------------------------------------------------------------|
E|-----------------------------------------------------------------------------|

Refrão
e|-----------------------------------------------------------------------------|
B|-----------------------------------------------------------------------------|
G|-------5-------5-------------------------------------------------------------|
D|-7-3-5-5-7-3-5-5-7-----------------------------------------------------------|
A|-7-3-5-3-7-3-5-3-7-----------------------------------------------------------|
E|-5-1-3---5-1-3---5-----------------------------------------------------------|

Verso
e|-----------------------------------------------------------------------------|
B|-----------------------------------------------------------------------------|
G|---7-----5---7-----5---------------------------------------------------------|
D|-3-7-3-5-5-3-7-3-5-5---------------------------------------------------------|
A|-3-5-3-5-3-3-5-3-5-3---------------------------------------------------------|
E|-1---1-3---1---1-3-----------------------------------------------------------|


_______________________________________________________
Contribuição: Maycon André Mantau Espindola([email protected])
	  

Search Paypal
auto scroll beats size up size down change color hide chords drawings
tab show chords e-chords YouTube Clip e-chords hide all tabs e-chords go to top tab