Face To Face

home > Face To Face

123 Drop Tab

Face To Face

Difficulty: nolevelnolevel

by educastilho

tuner correct add songbook print version text version save to e-mail
chordsukulelecavacokeyboardtabbassdrumsharmonicsflute Guitar Pro
chords

123 Drop

  		

Intro :  

e|---------------| 
B|---------------| 
G|---------------| 
D|---------------| 
A|---------------|  4x 
E|-3-5----7-0----| 

Then This > 

Guitar 1 
e|-------------------------------------------------------------| 
B|-------------------------------------------------------------| 
G|-------------------------------------------------------------| 
D|-------------------------------------------------------------| 
A|-------------------------------------------------------------| 
E|--3-5---7-0-----3-5---5-7-0-----3-5---7-0----3-5---5-7-0-----| 

Guitar 2 
e|-------------------------------------| 
B|-------------------------------------| 
G|-----------9-9-9-9---------9-9-9-9---| 
D|---7-7-7-7-9-9-9-9-7-7-7-7-9-9-9-9---| 
A|---7-7-7-7-7-7-7-7-7-7-7-7-7-7-7-7---| 2x 
E|---5-5-5-5---------5-5-5-5-----------| 

Verse :  
(You can't stay, Used it up...) 


e|-------------------------------------| 
B|-------------------------------------| 
G|-----------9-9-9-9---------9-9-9-9---| 
D|---7-7-7-7-9-9-9-9-7-7-7-7-9-9-9-9---| 
A|---7-7-7-7-7-7-7-7-7-7-7-7-7-7-7-7---| 2x 
E|---5-5-5-5---------5-5-5-5-----------| 

(No one will cry when they are dead...) 

e|---------------------------------------------------------------| 
B|---------------------------------------------------------------| 
G|-777777---------777777--------777777--------------9-7-5-4------| 
D|-777777-7777777-777777-777777-777777-77777-99999--9-7-5-4-7777-| 
A|-555555-7777777-555555-777777-555555-77777-99999--7-5-3-2-7777-| 
E|--------5555555--------555555--------55555-77777----------5555-| 

Intro :  

Guitar 1 
e|-------------------------------------------------------------| 
B|-------------------------------------------------------------| 
G|-------------------------------------------------------------| 
D|-------------------------------------------------------------| 
A|-------------------------------------------------------------| 
E|--3-5---7-0-----3-5---5-7-0-----3-5---7-0----3-5---5-7-0-----| 

Guitar 2 
e|-------------------------------------| 
B|-------------------------------------| 
G|-----------9-9-9-9---------9-9-9-9---| 
D|---7-7-7-7-9-9-9-9-7-7-7-7-9-9-9-9---| 
A|---7-7-7-7-7-7-7-7-7-7-7-7-7-7-7-7---| 2x 
E|---5-5-5-5---------5-5-5-5-----------| 

verse 2:  
(Bills to pay, And piling up...) 

e|-------------------------------------| 
B|-------------------------------------| 
G|-----------9-9-9-9---------9-9-9-9---| 
D|---7-7-7-7-9-9-9-9-7-7-7-7-9-9-9-9---| 
A|---7-7-7-7-7-7-7-7-7-7-7-7-7-7-7-7---| 2x 
E|---5-5-5-5---------5-5-5-5-----------| 

(No one will cry when they are dead...) 

e|---------------------------------------------------------------| 
B|---------------------------------------------------------------| 
G|-777777---------777777--------777777--------------9-7-5-4------| 
D|-777777-7777777-777777-777777-777777-77777-99999--9-7-5-4-7777-| 
A|-555555-7777777-555555-777777-555555-77777-99999--7-5-3-2-7777-| 
E|--------5555555--------555555--------55555-77777----------5555-| 

Intro :  

Guitar 1 
e|-------------------------------------------------------------| 
B|-------------------------------------------------------------| 
G|-------------------------------------------------------------| 
D|-------------------------------------------------------------| 
A|-------------------------------------------------------------| 
E|--3-5---7-0-----3-5---5-7-0-----3-5---7-0----3-5---5-7-0-----| 

Guitar 2 
e|-------------------------------------| 
B|-------------------------------------| 
G|-----------9-9-9-9---------9-9-9-9---| 
D|---7-7-7-7-9-9-9-9-7-7-7-7-9-9-9-9---| 
A|---7-7-7-7-7-7-7-7-7-7-7-7-7-7-7-7---| 2x 
E|---5-5-5-5---------5-5-5-5-----------| 

Bridge :  

e|----------------------------------------------| 
B|----------------------------------------------| 
G|---9-9-9-9-9-9-9-9-9-9-9-9-9-9-9-9------------| 
D|---9-9-9-9-9-9-9-9-9-9-9-9-9-9-9-9------------| 
A|---7-7-7-7-7-7-7-7-7-7-7-7-7-7-7-7------------| 
E|----------------------------------------------| 

Solo :  

e|--------------------------------------------------------------------| 
B|--------------------------------------------------------------------| 
G|--14---16-9---12-14---14-16-9---12-14---16-9---12-14---14-16-9------| 
D|--x----x--x---x--x----x--x--x---x--x----x--x---x--x----x--x--x------| 
A|--12---14-7---10-12---12-14-7---10-12---14-7---10-12---12-14-7------| 
E|--------------------------------------------------------------------| 

(No one will cry when they are dead...) 

e|---------------------------------------------------------------| 
B|---------------------------------------------------------------| 
G|-777777---------777777--------777777--------------9-7-5-4------| 
D|-777777-7777777-777777-777777-777777-77777-99999--9-7-5-4-7777-| 
A|-555555-7777777-555555-777777-555555-77777-99999--7-5-3-2-7777-| 
E|--------5555555--------555555--------55555-77777----------5555-| 

Final Part (Instrumental) :  

Guitar 1 
e|-------------------------------------| 
B|-------------------------------------| 
G|-----------9-9-9-9---------9-9-9-9---| 
D|---7-7-7-7-9-9-9-9-7-7-7-7-9-9-9-9---| 
A|---7-7-7-7-7-7-7-7-7-7-7-7-7-7-7-7---| Until the end 
E|---5-5-5-5---------5-5-5-5-----------| 

Guitar 2 
e|--------5----------------------------| 
B|----------5-3-5--0-5-3-5-------------| 
G|-------------------------------------| 
D|-------------------------------------| 
A|-------------------------------------| Until the end 
E|-------------------------------------| 
	  

Search Paypal
auto scroll beats size up size down change color hide chords drawings
tab show chords e-chords YouTube Clip e-chords hide all tabs e-chords go to top tab