Extreme

home > Extreme

Pornograffitti Tab

Extreme

Difficulty: nolevelnolevel

tuner correct add songbook print version text version save to e-mail
chordsukulelecavacokeyboardtabbassdrumsharmonicsflute Guitar Pro
chords

Pornograffitti

Year: 1990 - Album: Extreme II: Pornograffitti

  		Rhy Fig 1 start 
 
-----------------------3---3--3-3-3--x-------------3--3-3-3-3-| 
-----------2--2---x-x--2---2--2-2-2--x---2-2---x-x-2--2-2-2-2-| 
-----------0--0---x-x--2---2--2-2-2--x---0-0---x-x-2--2-2-2-2-| 
-----------2--2---x-x--2---2--2-2-2--x---2-2---x-x-2--2-2-2-2-| 
-----------0--0---x-x--------------------0-0---x-x------------| 
-3--0-0-------------------------------------------------------| 
 
------------------------------------------------------------| 
-------------3--2------------------------3--2---------------| 
-------0--2--2--2-----------------0--2---2--2---------------| 
-------0--2--4--2-----------------0--2---4--2---------------| 
------------------------------------------------------------| 
-0--0--------------3--0-0----0--0--------------3--0-0-------| 
 
 
                         end fig 1 
 
--------------3-3-3-3-3--x---15-15-15-15-15-15-15-15--------| 
-2---2---x-x--2-2-2-2-2--x---14-14-14-14-14-14-14-14--------| 
-0---0---x-x--2-2-2-2-2--x---14-14-14-14-14-14-14-14--------| 
-2---2---x-x--2-2-2-2-2--x---14-14-14-14-14-14-14-14--------| 
-0---0---x-x------------------------------------------------| 
------------------------------------------------------12\0--| 
 
-0--0--0----0--0---0--------------0-----x\ps----------------| 
-0--0--0----4--4---2--------------0-----x\-----x------------| 
-9--9--7----4--4---2--------------------x\-----x------------| 
-9--9--7----4--4---2----------2---------x\-----x------------| 
-7--7--5----------------------2-----------------------------| 
-0--0------------------3b(4)--0-----------------------------| 
 
--------0----0--0--0----------0-----------------------------| 
--------0----4--4--2----------0----------------12-12-12-12--| 
-9--9---7----4--4--2---------------------------12-12-12-12--| 
-9--9---7----4--4--2---------------------------12-12-12-12--| 
-7--7---5---------------------------------------------------| 
-0--0------------------3--0---------0-0-0-0-0---------------| 
 
 
-------------------------------------------------------------| 
-------------------------------------------------------------| 
--------2-------2--4b(6)rb4-2---2-2--------------------------| 
------------------------------4-----4-2--4b(6)rb4-2--2-2-----| 
-0-3h4-----3h4--------------------------------------4----3-4-| 
-------------------------------------------------------------| 
 
 
------------------------------0-----------------------0-----| 
----2--2--2-------------------0-----------------------0-----| 
----2--2--2-------------------------------------------------| 
-2--2--2--2-------------------------------------------------| 
-------------5-7--------------------5---7-------------------| 
------------------3--5--0--3-----0--------0-3-5--3----------| 
 
------------------------------------------------------------| 
------------------------------------------------------------| 
---------2--------2--4b(6)rb4-2---2-2-----------------------| 
--------------------------------4-----4-2--4b(6)rb4-2---2-2-| 
-0--3--4----3--4--------------------------------------4-----| 
------------------------------------------------------------| 
 
 
---------------------------------0--------------------------| 
-------2--2--2-------------------0--------------------------| 
-------2--2--2----------------------------------------5-----| 
-----2-2--2--2------------------------------------5-----5---| 
-3-4------------5--7------------------5--7------5---5-------| 
----------------------3--5--0-3-----0-------0-0-------------| 
 
 
                      Verses 
 
-----5-------------||---------------------------------------| 
-5-----5-----------||---------------------------------------| 
---5-----5---------||o--------------------------------------| 
-------------------||o--------------------------------------| 
-------------------||---------------------------------3--4--| 
-------------3-----||---5\---0--3--5--5--3----5\--5---------| 
 
--------------------------------------------------------------| 
--------------------------------------------------------------| 
--------------------------------------------------------------| 
--------------------------------------------------------------| 
-------------------------------------------5--7--3--4---------| 
-5--3--3---5\---0--3--5---5--5--3----5\---------------5-3-5-3-| 
 
------------------------------------------------------------| 
------------------------------------------------------------| 
------------------------------------------------------------| 
------------------------------------------------------------| 
---------------------------------------3-4------------------| 
-5\----0-3--5------5-----3----5\---x-x-----5-3---3----------| 
 
 
------------------------------------------------------------| 
------------------------------------------------------------| 
------------------------------------------------------------| 
------------------------------------------------------------| 
---------------------------5-7-3-4---------------4--5~------| 
-5*~--0--3-5---5-5-3---5------------5-3-5-3---5---------3-5-| 
 
 
------------------------------------------------------------| 
------------------------------------------------------------| 
------------------------------------------------------------| 
------------------------------------------------------------| 
-5--7\------------4--5~---3--4----------------4--5~---------| 
---------3---5--5---------------5--3-3---5--5--------3-5----| 
 
 
------------------------------------------------------------| 
------------------------------------------------------------| 
------------------------------------------------------------| 
------------------------------------------------------------| 
--5--7-----------4--5--5-7-3--4-------------------4--5~-----| 
--------3---5--5-----------------5--3--3---5---5------------| 
 
 
------------------------------------------------------------| 
------------------------------------------------------------| 
------------------------------------------------------------| 
------------------------------------------------------------| 
--------5---7\------------4---5--x-x--3-4-------------------| 
-3-5-------------3---5--5-----------------5--3--3----5--5---| 
 
 
------------------------------------------------------------| 
------------------------------------------------------------| 
------------------------------------------------------------| 
------------------------------------------------------------| 
-4--5~--------5--7------------4--5--5-7--3-4----------------| 
--------3--5--------3----5--5----------------5-4--3-0-------| 
 
 
Bridge 
-----0---0----------0--0----0-------------------------------| 
-----0---0----------0--0----0-------------------------------| 
-----9---7----------4--4----2-------------------------------| 
-----9---7----------4--4----2-------------------------------| 
-7-------5----------2--2----0-------------------4h5---------| 
---------------------------------3b(4)--0----x--------0-0-x-| 
 
---------------------------------------------0---0----------| 
---------------------------------------------0---0----------| 
-----------------6h7----------6---4h5p4------9---7----------| 
---------------------------------------------9---7----------| 
-4--4h5-------4--4h5----------4---4h5p4--7-------5----------| 
---------0-x------------0-0-x-------------------------------| 
 
 
--0---0----0------------------------------------------------| 
--0---0----0------------------------------------------------| 
--4---4----2----------------6h7-----------6h7---------------| 
--4---4----2------------------------------------------------| 
--2---2----0-------------4--4h5--------4--4h5---------------| 
---------------3--0---x----------0-0-0--------4--5--6--7--6-| 
 
 
------------------------------------------------------------| 
------------------------------------------------------------| 
------------------------------------------------------------| 
------------------------------------------------------------| 
------------------------------------------------------------| 
-6--5--4--3-------------------------------------------------| 
 
Chorus Rhy Fig 1 
 
End 1                     End 2 
-------------5--5---5--||-----------------------------------| 
-------------5--5---5--||-----------------------------------| 
---2--2--2---2--2---2-o||----2--2---2-0-2-0-4---------------| 
---2--2--2---2--2---2-o||----2--2--------------5b(6)--------| 
---0--0--0-------------||----0--0---------------------------| 
-----------------------||-----------------------------------| 
{B}==================== 
Play Chorus 
 
 
Lead 
 
-------------------------------------------------------------| 
-----3---0---------------------------------------------------| 
-2/4---4---3p2p0-2-0-2*--------------------------------------| 
------------------------------------------------------9-14-9-| 
-----------------------------2-7-2-------8-13-8----11--------| 
---------------------------4-------4--10--------10-----------| 
 
 
--------------------------------------15b(17)-----------------| 
-------------------------12-17-12--------------15b(17)rb15p13-| 
--------10-15-10----13------------13--------------------------| 
-----12----------12-------------------------------------------| 
-11-----------------------------------------------------------| 
--------------------------------------------------------------| 
 
 
12-------------------12--------------------------------------| 
---15-12-15-12----------------------12b(14)*-----------------| 
---------------15-14----15-14-12-14------------14b(16)--12~~-| 
-------------------------------------------------------------| 
-------------------------------------------------------------| 
-------------------------------------------------------------| 
 
 
------------------------------------------------------------| 
-----------------------------------------8*-5*---5----------| 
---------------7-------------------9---9-------7---7---9----| 
---------9-7-9---9-7-9-7----7----7---5---------------9---12-| 
-10-7-10-----------------10---10----------------------------| 
------------------------------------------------------------| 
 
 
----------------------------------10----10-12--------------10-| 
-----------12-9----9-------------------------------------9----| 
-9-13-9-13------12---12-9-12-9-12----12----------------7------| 
----------------------------------------------------6---------| 
--------------------------------------------------7-----------| 
------------------------------------------------0-------------| 
 
 
-15--19--15--22b(24)--22-22-22-22--22-22-rb22-22-22-22-21---| 
------------------------------------------------------------| 
------------------------------------------------------------| 
------------------------------------------------------------| 
------------------------------------------------------------| 
------------------------------------------------------------| 
 
 
-22-21-19-21-19-17-19-17-15-17-14-12-14-12----12-------------| 
-------------------------------------------14----14-13-14-13-| 
-------------------------------------------------------------| 
-------------------------------------------------------------| 
-------------------------------------------------------------| 
-------------------------------------------------------------| 
 
 
-------------7------9------10-------11--------10-------------| 
-12-10\------------------------------------------------------| 
---------7/8----8/9---9/10----10/11-----11\10----10--9-10-12-| 
-------------------------------------------------------------| 
-------------------------------------------------------------| 
-------------------------------------------------------------| 
 
 
-8-10-12-10-8-----------------------10-12-14-12-10----------| 
-----------------10p8---------------------------------12p10-| 
--------------12------10-9-11-12-14----------------14-------| 
------------------------------------------------------------| 
------------------------------------------------------------| 
------------------------------------------------------------| 
 
--------------/12\w/bar--12p11------------------------------| 
--------------------------------12p9b(10)~-----7~-----9/12--| 
-12-11---14~------------------------------------------------| 
------------------------------------------------------------| 
------------------------------------------------------------| 
------------------------------------------------------------| 
 
 
-------------------------------------------------------------| 
-9~--------------5-------------------------------------------| 
---------------7---5-6---------------------------------------| 
-----------------------7-5-5---5\---5-7/---5-----7\----------| 
-----------------------------------------------------3-4-----| 
-------------5-----------------------------------------------| 
 
 
------------------5-----3---------2-------------------------| 
--------------------------------------------3------\1-------| 
------------------------------------------------------------| 
------------------------------------------------------------| 
------------------------------------------------------------| 
-5--3-3-----------------------------------------------------| 
 
 
-----------------------15------------------------------------| 
-------------------15b-----rb15~--13-------------------------| 
----x--\--xps------------------------14-12----12-----14b(16--| 
----x--\--x--------------------------------14----------------| 
----x--\--x--------------------------------------------------| 
-------------------------------------------------------------| 
 
 
------------------------------------------------------------| 
-13b(16)----------------------------------------------------| 
--------14p12h14~-----------12b(13)-------------------------| 
-----------------------12------------14--12-12---7-5-7/8\7--| 
------------------------------------------------------------| 
------------------------------------------------------------| 
 
 
------------------------------------------------------------| 
------------------------------------------------------------| 
------------------------------------------------------------| 
-5------------5b(7)-----------------------------------------| 
----7-7--7p5----------7*------------------------------------| 
------------------------------------------------------------| 
 
Rhy Fig 1 
Play B 
 
C 6x 
------------------------------------------------------------| 
------------------------------------------------------------| 
------0--2------------2-------------------------------------| 
------0--2------------2-------------------------------------| 
-2-2--------2---------0-------------------------------------| 
-0-0--------0--3b(4)----------------------------------------| 
 
Play Bridge with 
 
------------------------------------------------------------| 
---8-10b(12)rb8--10b(12)-10b--8-------------8---------------| 
-9-------------------------------9-7-9-9-9-----7--7---------| 
------------------------------------------------------------| 
------------------------------------------------------------| 
------------------------------------------------------------| 
 
 
-------------12----------12----------12----------12----------| 
----12-15-12----15-12-------15-12-------15-12-------15-12----| 
-9/-------------------15----------15----------15----------15-| 
-------------------------------------------------------------| 
-------------------------------------------------------------| 
-------------------------------------------------------------| 
 
 
--------------------------------------------------------------| 
--------------------------------------------------------------| 
-14b--14-12----12-14b--14-12----12-14-12-11-------------------| 
------------14---------------14-------------14-12-------------| 
--------------------------------------------------14-13-12-11-| 
--------------------------------------------------------------| 
 
 
------------------------------------------------------------| 
------12----------------------------------------------------| 
------12----------------------------------------------------| 
-14---12----------------------------------------------------| 
------------------------------------------------------------| 
------------------------------------------------------------| 

	  

Full key step upFull key step up
Half key step upHalf key step up
Half key step downHalf key step down
Full key step downFull key step down
Search Paypal
auto scroll beats size up size down change color hide chords drawings
tab show chords e-chords YouTube Clip e-chords hide all tabs e-chords go to top tab