Extreme

home > Extreme

Lil Jack Horny Tab

Extreme

Difficulty: ExpertExpert

by kakalzinha

tuner correct add songbook print version text version save to e-mail
chordsukulelecavacokeyboardtabbassdrumsharmonicsflute Guitar Pro
chords

Lil Jack Horny

  		---------------------3--0-| 


|----------------------------------------------| 
|----------------------------------------------| 
|----------------------------------------------| 
|----------------------------------------------| 
|-----------4--2--5--7----2--5--7---------2----| 
|--0--3--0-------------------------0--3---0----| 


  E5        G5     A5    B5    G5    E5 

  Moth-------------er          Goose           nev- 

|-------------------------------------------------| 
|-------------------------------------------------| 
|-------------------------------------------------| 
|------------2---4--------------------------------| 
|--2--5--2---0---2--------5---2----------------2--| 
|--0--3--0----------------3---0----------------0--| 


            G5 E5 A5 E5 G5 E5 

 -er   should    have    ev-------er   let     that  


|----------------------------------------------------| 
|----------------------------------------------------| 
|----------------------------------------------------| 
|---------------2------------------------------------| 
|--2--2--5--2---0--2---5---2-----4 \ 5 / 4 \ 5----5--| 
|--0--0--3--0------0---3---0-----6 \ 7 / 6 \ 7----7--| 


     E5       G5  E5  A5  B5  G5  E5         

       -Jack---------        get    loose.  

|----------------------------------------------| 
|----------------------------------------------| 
|----------------------------------------------| 
|--------------------2---4---------------------| 
|--2-----2---5---2---0---2-------5---2---------| 
|--0-----0---3---0---------------3---0---------| 



****************************************************** 
	THIS IS ALL THE SAME FOR NEXT PART 
	OF THE VERSE, WHICH IS: 

    E5   G5 E5 A5 B5 G5 E5 
For that little boy blue,  

  G5  E5  A5  B5  G5  E5                     G5 E5 A5 B5 G5 E5   
keeps messin' all the things he gets his hands    -------  into. 
****************************************************** 

Bridge     
****** 

                   D5   C#5  C5   B5   A#5  B5 

|--------------------------------------------------| 
|--------------------------------------------------| 
|------------------7----6----5----4----3-----4-----| 
|------------------7----6----5----4----3-----4-----| 
|---4/5\4/5----------------------------------2-----| 
|---6/7\6/7----------------------------------------| 

                                        C#5       D5 

  Now        look        what        you've       done       

|----------------------------------------------------| 
|----------------------------------------------------| 
|--4-----------4--------4----------------4--6----7---| 
|--4--4--------4--------4----------------4--6----7---| 
|--2--2---5/2--2--------2------2---5/2---2--4----5---| 
|----------------------------------------------------| 

          A     E                       B5 

|----------------------------------------------| 
|---------10----9------------------------------| 
|--7-------9----9-----7------7---9---7---4-----| 
|--7------11----9-----7------7---9---7---4-----| 
|--5-------------------------------------2-----| 
|----------------------------------------------| 



  Stuck       in         your     thumb        pulled  

|-------------------------------------------------------| 
|----------------------------------------4--------------| 
|--4------------6/7\6--4------4----------4----------7---| 
|--4----------------------6---4----------4-----6----7---| 
|--2--2--5/2------------------4---2---0--------4----5---| 
|-------------------------------------------------------| 


   E5        F#5 
  out a plum-----. 

|-------------|----------------------------------| 
|-------------|---------------------------14\11--| 
|--9----11----|--11--11--x--x---11---11----------| 
|--9----11----|--11--11--x--x---11---11----------| 
|--7-----9----|---9---9--x--x----9----9----------| 
|-------------|----------------------------------| 





|---------------------------------9bd * steps------| 
|-11-9---10--11--------9\7-----------------------------| 
|---------------11--8--------8-6---------------------4-| 
|----------------------------------------------------4-| 
|----------------------------------------------------2-| 
|------------------------------------------------------| 


Chorus 
******  
 B5 
  Mamma says boys will be boys            (mamma says mamma says)  

|---------------------------------------------------| 
|-------5\4----2-----5-----4---4/5\4\2--------------| 
|--4--------4-----4-----4---------------4---2-------| 
|--4----------------------------------------2-------| 
|--2----------------------------------------0-------| 
|---------------------------------------------------| 



C#5        D5    D9         D                 D             
ask     lit -  tle        Jack              Horny 




---Little Jack Horny    (end) 

|----------------------------------------------| 
|----------------------------------------------| 
|----------------------------------------------| 
|----------------------------------------------| 
|-7-11-11-12-12-13-13-14-14-13-13-12-12-11-11-7| 
|----------------------------------------------| 



  2ND VERSE TAPPING FOR TIME WILL TELL "HOW LATE THE RABBIT WILL 
                                         ARRIVE IN WONDERLAND" 



  time       -------      will     --------      tell 
   +     +      +    +  +      +       +     +  +    +      
|----------------------------------------------------------| 
|-12/5--12\5\0--5\0--5--10\5---10\5\0--5\0--\5--9\5--9\5\0-| 
|----------------------------------------------------------| 
|----------------------------------------------------------| 
|----------------------------------------------------------| 
|----------------------------------------------------------| 


                      how         late 
   +          +     +       +       
|----------------------------------------------| 
|--5\0---\5---7\5---7\5\0---5\0---\5-----------| 
|----------------------------------------------| 
|----------------------------------------------| 
|----------------------------------------------| 
|----------------------------------------------| 


  the                     rabbit                         will 
   +     +        +       +     +        +      +     + 
|----------------------------------------------------------| 
|----------------------------------------------------------| 
|-11\2--11\2\0--\2\0/2---9\2---9\2\0---\2\0/2---8\2--8\2\0-| 
|----------------------------------------------------------| 
|----------------------------------------------------------| 
|----------------------------------------------------------| 


  arrive                    in 
    +       +      +         + 
|----------------------------------------------------| 
|----------------------------------------------------| 
|--\2\0/2---11\2---11\2\0---\2\0/2-------------------| 
|----------------------------------------------------| 
|----------------------------------------------------| 
|----------------------------------------------------| 


    wonder     --------      land. 
   +     +       +      +      +         +      +    + 
|-12\5--12\5\0--\5\0/5--10\5---10\5\0---\5\0/5--9\5--9\5-| 
|--------------------------------------------------------| 
|--------------------------------------------------------| 
|--------------------------------------------------------| 
|--------------------------------------------------------| 
|--------------------------------------------------------| 


SOLO:  (ain't hard) 
**** 


|-(15)-12/14-bd.*|-(10)~~~~~~~--| 
|---------------------------------------|--------------| 
|---------------------------------------|--------------| 
|---------------------------------------|--------------| 
|---------------------------------------|--------------| 
|---------------------------------------|--------------| 

            +                 + 
|--7-10-12/14\12--10--7--10--14--10----| 
|--------------------------------------| 
|--------------------------------------| 
|--------------------------------------| 
|--------------------------------------| 
|--------------------------------------| 


              +           +         +           
|-12\10/12/14-19\12/14\12-19\12-17--19\17\12\--| 
|----------------------------------------------| 
|----------------------------------------------| 
|----------------------------------------------| 
|----------------------------------------------| 
|----------------------------------------------| 

   +     +     +        +           +        
|--------------------|----------------------------------| 
|--\17--19\12-12/17--|-19/12/15/17-17-----17------------| 
|-----------16-------|---------------13------12---------| 
|--------------------|----------------------------------| 
|--------------------|----------------------------------| 
|--------------------|----------------------------------| 



|--15--12--10-------------|------------------------------| 
|-------------12--10--8---|------------------------------| 
|-------------------------|--9---7-----------------------| 
|-------------------------|----------9----8----7---5---7-| 
|-------------------------|------------------------------| 
|-------------------------|------------------------------| 



|-------------------------------------------------------| 
|-------------------------------------------------------| 
|-------------------------------------------------------| 
|--------------5-7---5-7-9-7-5----7-5-------5-----------| 
|-3--5-7-3-5-7-----7------------7------7--5---7-5-7-5---| 
|-------------------------------------------------------| 


|--------------------------------------------------------| 
|--------------------------------------------------------| 
|--------------------------------------------------------| 
|----------------4-5---4-5-7-5-4----5-4---5-4---5-4------| 
|--2-3--5-2-3-5------5-----------5------5-----5-----5----| 
|--------------------------------------------------------| 


|----------------------------------------| 
|----------------------------------------| 
|----------------------------------------| 
|-2---2----2-4-5-4-2---4-2---------------| 
|-2-3---2-3----------3-----3-3--5-3-2-3-2| 
|----------------------------------------| 



|------------------------------| 
|------------------------------| 
|------------------------------| 
|------------------------------| 
|-------------5-7---5-7----5---| 
|-3-5-7-3-5-7-----7-----7------| 


|----------------------------------------------------| 
|----------------------------------------3--5--3-----| 
|---------2--------2--4-----2-4-5-2-4-5--------------| 
|-1-4--5-----4--5--------5---------------------------| 
|----------------------------------------------------| 
|----------------------------------------------------| 


|--------------------------------------------------------| 
|--------------------------------------------------------| 
|--5-4-2-5-4-2----4-2-----------------------------2------| 
|--------------------5--------5-4-----2-4-5-2--4-5--4--5-| 
|-----------------------------------5--------------------| 
|--------------------------------------------------------| 


|-----------------------------------------------------| 
|-----------------3-----------------------------------| 
|--2-4---2-4-5--5--4-2-5-4---2---4--2------2----------| 
|------5------------------------------5---5--4-5-4--2-| 
|-----------------------------------------------------| 
|-----------------------------------------------------| 


|-------------------------------------------------------| 
|-------------------------------------------------------| 
|--------------------------------2----2-4-5--4--2--4--2-| 
|-------2-4----2-4-5-2-4-5--4-5----------------5--------| 
|--3-5-----5--------------------------------------------| 
|-------------------------------------------------------| 


|--------------------------------------------| 
|--------------------------------------------| 
|---------2----------------------------------| 
|---5--4-----5--4--2--5--4---2---------------| 
|--------------------------------5-----------| 
|--------------------------------------------| 



Finish solo, then go into Chorus. 
then fade out on   "E  D  E" , and 

|-10-10-10-10-10--12-12-12-12-12-| 
|-10-10-10-10-10--12-12-12-12-12-| 
|-11-11-11-11-11--13-13-13-13-13-|  REPEAT 
|--------------------------------| 
|--------------------------------| 
|--------------------------------| 
	  

Full key step upFull key step up
Half key step upHalf key step up
Half key step downHalf key step down
Full key step downFull key step down
Search Paypal
auto scroll beats size up size down change color hide chords drawings
tab show chords e-chords YouTube Clip e-chords hide all tabs e-chords go to top tab