Exercise

How To Play Top Gear

Exercise

tabs

by  TEUSALVES

save to print version add songbook text version e-mail correct tuner
chordsukulelecavacokeyboardtabbassdrumsharmonicaflute Guitar Pro
close
how-to-play-top-gear-by-exercise

there is a video lesson for this song

chords

How To Play Top Gear

	  		1  


---------------8h11-11/15p11------------------------------------ 
-------------8---------------13--------------------------------- 
-----------8--------------------12------------------------------ 
--------10-------------------------13p12------------------------ 
-----10----------------------------------15--------------------- 
8h11------------------------------------------------------------ 

------------------11h15-15/18p15-------------------------------- 
---------------11----------------16----------------------------- 
------------12----------------------15-------------------------- 
---------13----------------------------17p15-------------------- 
------13-------------------------------------18----------------- 
11h15----------------------------------------------------------- 

-------------6-10-10/13p10-------------------------------------- 
-----------6---------------11----------------------------------- 
---------7--------------------10-------------------------------- 
-------8-------------------------12p10-13----------------------- 
-----8---------------------------------------------------------- 
6h10------------------------------------------------------------ 


2 

13/15p11----------11-15p11h15/20p15----------15-20-------------- 
---------13----13-------------------16----16-------------------- 
------------12-------------------------17----------------------- 
---------------------------------------------------------------- 
---------------------------------------------------------------- 
---------------------------------------------------------------- 

3 

13/15p11----------11h15p11--15p11----11------------------------- 
---------13----13-----------------15---------------------------- 
------------12-------------------------------------------------- 
---------------------------------------------------------------- 
---------------------------------------------------------------- 
---------------------------------------------------------------- 


4 
---------------------------------------------------------------- 
-------------------------------------------8-9-8------8--------- 
-----------7-8-7------8-----8------10-7-10-------10-7--8-7-8---- 
10------10-------10-8---8-8---8-8----------------------------10- 
--10-10--------------------------------------------------------- 
---------------------------------------------------------------- 

---------------------------------------------------------------- 
------------------------------------------8-9-8------11b13------ 
-----------7-8-7-----8-----8------10-7-10-------10-8------------ 
10------10------10-8---8-8---8-8-------------------------------- 
--10-10--------------------------------------------------------- 
---------------------------------------------------------------- 

5 
----------------------------------------16-15-13-15-16---------- 
---16-15-13-15-16----18-16-15-16-18--13------------------------- 
13----------------15-------------------------------------------- 
---------------------------------------------------------------- 
---------------------------------------------------------------- 
---------------------------------------------------------------- 

---------------------------------------------------------------- 
15----15-16-18-16-15-------------------------------------------- 
---15----------------15----------------------------------------- 
---------------------------------------------------------------- 
---------------------------------------------------------------- 
---------------------------------------------------------------- 

6 

---------------------------------------------------------------- 
-----------15-16-15-------16-------16--------------------------- 
17------17----------17-15----15-15----15-15--------------------- 
--17-17--------------------------------------------------------- 
---------------------------------------------------------------- 
---------------------------------------------------------------- 

---------15-16-15-------15-------------------------------------- 
18-15-18----------18-16----16-15-16----------------------------- 
------------------------------------17-------------------------- 
---------------------------------------------------------------- 
---------------------------------------------------------------- 
---------------------------------------------------------------- 

---------------------------------------------------15-16-15----- 
---------15-16-15-------16-------16-------18-15-18---------18-16 
17----17----------17-15----15-15----15-15----------------------- 
---17----------------------------------------------------------- 
---------------------------------------------------------------- 
---------------------------------------------------------------- 

---------------15h18h20h22t23p22p20p18p15----------------------- 
------------16----------------------------16-------------------- 
---------17----------------------------------17----------17~---- 
------17----------------------------------------17-------------- 
15h18----------------------------------------------18-15-------- 
---------------------------------------------------------------- 

7            
---------------------------------------------------------------- 
----16----16----16---------------------------------------------- 
/13----15----13------------------------------------------------- 
---------------------------------------------------------------- 
---------------------------------------------------------------- 
---------------------------------------------------------------- 

8 

13p10----13p10----13p10----13p10----15p10-13p10----------------- 
------11-------11-------11-------11----------------------------- 
---------------------------------------------------------------- 
---------------------------------------------------------------- 
---------------------------------------------------------------- 
---------------------------------------------------------------- 

15p11----15p11----15p11----15p11----16p11-15p11----------------- 
------13-------13-------13-------13----------------------------- 
---------------------------------------------------------------- 
---------------------------------------------------------------- 
---------------------------------------------------------------- 
---------------------------------------------------------------- 

15p11----15p11----15p11----15p11----16p11-15p11----------------- 
------11-------11-------11-------11----------------------------- 
---------------------------------------------------------------- 
---------------------------------------------------------------- 
---------------------------------------------------------------- 
---------------------------------------------------------------- 

     
9 

---------------------------------------------------------------- 
11/13p11/8--11p8--11-13b15-13-11-11h13-------------------------- 
---------------------------------------------------------------- 
---------------------------------------------------------------- 
---------------------------------------------------------------- 
---------------------------------------------------------------- 

---------------------------------------------------------------- 
11/13p11/8--11p8------------------------------------------------ 
-----------------10-10/12p10/8---------------------------------- 
-------------------------------10------------------------------- 
---------------------------------------------------------------- 
---------------------------------------------------------------- 
		  

See also:

tabs Ira! - Vitrine Viva tabs Deep Purple - Black Knight tabs Deep Purple - Demonds Eye tabs Deep Purple - Smoke on the Water (ver. 2) tabs Deep Purple - Clearly Quite Absurd tabs Ira! - Envelheço na Cidade (intro)
e-chords

Other versions:

tabs Exercise - How To Play Top Gear
auto scroll beats size up size down change color hide chords drawings
tab show chords e-chords YouTube Clip e-chords hide all tabs e-chords go to top tab

share