Exercise

How To Play Steve Vai Style

Exercise

tabs

by  TEUSALVES

save to print version add songbook text version e-mail correct tuner
chordsukulelecavacokeyboardtabbassdrumsharmonicaflute Guitar Pro
close

there isn't a video lesson for this song

chords

How To Play Steve Vai Style

	  		ex 1  

|-17/13-15/12-13/10-12/8-10/7-8/5-|  
|---------------------------------|  
|---------------------------------|  
|---------------------------------|  
|---------------------------------|  
|---------------------------------|  

ex 2  

|---------------------12h15-20t-15p12---------12h15-19t-|  
|----------------12h13----------------13p12h13----------|  
|-----------9h12----------------------------------------|  
|-------9h10--------------------------------------------|  
|---7h10------------------------------------------------|  
|7h8----------------------------------------------------|  

ex 3  

|--5h7h8-12t-8p7p5-----7h8h10-13t-10p8p7----8h10h12-15t-12p10p8--|  
|8------------------10-------------------12----------------------|  
|----------------------------------------------------------------|  
|----------------------------------------------------------------|  
|----------------------------------------------------------------|  
|----------------------------------------------------------------|  

|8h10h12-15t-12p10p8-----------------------|  
|--------------------15t-12p10p8p10-15t-10-|  
|------------------------------------------|  
|------------------------------------------|  
|------------------------------------------|  
|------------------------------------------|  

ex4  

|------------------------------------------22-|  
|/13p12p10---/15p14p12---/17p16p14------20----|  
|---------12----------14----------16-17-------|  
|---------------------------------------------|  
|---------------------------------------------|  
|---------------------------------------------|  

ex5  

|14p11---------------------------------------------|  
|-----12p11/9---12p9-------------------------------|  
|------------11------11p9/8---11p8-----------------|  
|---------------------------9------9p8/6---9p6-----|  
|----------------------------------------7-----7p6-|  
|--------------------------------------------------|  

ex6  

|10p12p14-15t-14h12h10-----------------------------------------|  
|---------------------10p12p13-15t-13p12p10--------------------|  
|------------------------------------------9h11h12-14t-12p11p9-|  
|--------------------------------------------------------------|  
|--------------------------------------------------------------|  
|--------------------------------------------------------------|  

|----------------------------------------------|  
|----------------------------------------------|  
|----------------------------------------------|  
|9h10h12-14t-12p10p9---------------------------|  
|--------------------9h10h12-14t-12p10p9/7/5h7-|  
|----------------------------------------------|  

ex7  

|-----5h8-12t-8p5-----5h8-13t-8p5-----5h8--10t-8p5-------|  
|-5h6------------6p5h6-----------6p5h6-------------6p5h6-|  
|--------------------------------------------------------|  
|--------------------------------------------------------|  
|--------------------------------------------------------|  
|--------------------------------------------------------|  

EX 8  

|----------------------------------------------23-19-18-19-----21|  
|--------------------------------------------21-----------21b23--|  
|----------------16----13-16----20--16-16/20---------------------|  
|---16--13-16-------14------------18-----------------------------|  
|-----14------13-------------16----------------------------------|  
|12--------------------------------------------------------------| 
		  

See also:

tabs Ira! - Vitrine Viva tabs Deep Purple - Black Knight tabs Deep Purple - Demonds Eye tabs Deep Purple - Smoke on the Water (ver. 2) tabs Deep Purple - Clearly Quite Absurd tabs Ira! - Envelheço na Cidade (intro)
e-chords

Other versions:

tabs Exercise - How To Play Steve Vai Style
auto scroll beats size up size down change color hide chords drawings
tab show chords e-chords YouTube Clip e-chords hide all tabs e-chords go to top tab

share