Exercise

How To Play Jimi Hendrix Style

Exercise

tabs

by  TEUSALVES

save to print version add songbook text version e-mail correct tuner
chordsukulelecavacokeyboardtabbassdrumsharmonicaflute Guitar Pro
close

there isn't a video lesson for this song

chords

How To Play Jimi Hendrix Style

	  		ex 1  

|-------12----------------12---------------12--------------|  
|-----12--15p12---------12--15p12--------12--15p12---------|  
|14b16------------14b16------------14b16-------------14b16-|  
|----------------------------------------------------------|  
|----------------------------------------------------------|  
|----------------------------------------------------------|  

ex 2  
|----------------------------------------------------------------|  
|15p12----12---15p12----12---15p12----12---15p12----12---15b17---|  
|------14------------14------------14------------14--------------|  
|----------------------------------------------------------------|  
|----------------------------------------------------------------|  
|----------------------------------------------------------------|  

ex 3  

|---------------------------------------------|  
|------15b17-15b17r15----------15b17-15b17----|  
|----12--------------12-----12-------------14-|  
|/14--------------------/14-------------------|  
|---------------------------------------------|  
|---------------------------------------------|  

ex 4  


|15b17r15-12--12------------3b5r3-0---0-----|  
|-----------15--15b17---------------3---3b5-|  
|-------------------------------------------|  
|-------------------------------------------|  
|-------------------------------------------|  
|-------------------------------------------|  

ex 5  

|--0---------------------------------------------------|  
|--0-----------------------------4---------------------|  
|--1----9h11-9----9----9---------4----4h6-4---4---4----|  
|--2----9----9--9-9h11-9-9-------4----4---4-4-4h6-4-4--|  
|----/11-----------------9h11--2---4/6--------------4h6|  
|0-----------------------------------------------------|  

|-----------------------------0-|  
|--2--------------------------0-|  
|--2------2h4-2---2-----------1-|  
|--2-2/4--2---2-2-2h4-2--2----2-|  
|0-----------------------2h4----|  
|-----------------------------0-|  

ex 6  

|0---0--------------|  
|3/5-3--0---0-0-----|  
|-------2/4-2-0-0---|  
|---------------0p2-|  
|-------------------|  
|-------------------|  

ex 7  

|---------------------------------------------------------|  
|---------------------------------------------------------|  
|14b16r14p12----14--12------------------------------------|  
|------------14---14---14p12---14--12---------------------|  
|----------------------------14--14---14p12/10----12---11-|  
|----------------------------------------------12----12---|  

ex 8  

|9-8-7-------------------------|  
|-------9-8-7------------------|  
|--------------9-8-7-----------|  
|---------------------9-8-7--6~|  
|------------------------------|  
|------------------------------| 
		  

See also:

tabs Ira! - Vitrine Viva tabs Deep Purple - Black Knight tabs Deep Purple - Demonds Eye tabs Deep Purple - Smoke on the Water (ver. 2) tabs Deep Purple - Clearly Quite Absurd tabs Ira! - Envelheço na Cidade (intro)
e-chords

Other versions:

tabs Exercise - How To Play Jimi Hendrix Style
auto scroll beats size up size down change color hide chords drawings
tab show chords e-chords YouTube Clip e-chords hide all tabs e-chords go to top tab

share