Exercise

How To Play Eric Clapton Style

Exercise

tabs Expert expert

by  TEUSALVES

save to print version add songbook text version e-mail correct tuner
chordsukulelecavacokeyboardtabbassdrumsharmonicaflute Guitar Pro
close
how-to-play-eric-clapton-style-by-exercise

there is a video lesson for this song

chords

How To Play Eric Clapton Style

	  		ex 1 

|12b14-12-11-10-8-10-10bb11-10b12-8-------8/9-| 
|-----------------------------------10-7------| 
|----------------------------------------9----| 
|---------------------------------------------| 
|---------------------------------------------| 
|---------------------------------------------| 

ex 2 

|15b17-15-14-13-12-13-14-15--11/12--------------15-| 
|----------------------------------13-----15b17----| 
|-------------------------------------14-----------| 
|--------------------------------------------------| 
|--------------------------------------------------| 
|--------------------------------------------------| 

ex 3 

|------5---8b10-8-5-------5-5-----5-5--8b10-8-7----------| 
|----5---5------------5h8-----5h8---------------8-5-8b10-| 
|5h6-----------------------------------------------------| 
|--------------------------------------------------------| 
|--------------------------------------------------------| 
|--------------------------------------------------------| 

ex 4 

|10h11p10p8----10----8--------------------------------------| 
|-----------10----10---10p8---8h10--------------------------| 
|---------------------------9------7h8p7p5---7---5----------| 
|------------------------------------------7---7---7p5--5h7-| 
|------------------------------------------------------7----| 
|-----------------------------------------------------------| 

|------------------------------------| 
|------------------------------------| 
|----------------------------------7-| 
|----------------------------------6-| 
|5h6p5p3---5---3--0-4-0-5-0-6-0-7--7-| 
|--------5---5-----------------------| 

ex 5 

|------15------15-----15-------15----------------| 
|15b17---15b17---15b17---15b17----15b17-15-13----| 
|---------------------------------------------14-| 
|------------------------------------------------| 
|------------------------------------------------| 
|------------------------------------------------| 

|------20------------------------------------------------| 
|20b22----22r20p17--------20---------------15------------| 
|-------------------19b21---21r19p17--14b16--16r14p12-14-| 
|--------------------------------------------------------| 
|--------------------------------------------------------| 
|--------------------------------------------------------| 

ex 6 

|---------------------------------------------------------| 
|--------------------------------------------8b10-8-5-----| 
|---5-5---5-5---7h8p7p5---7---5----5-5---5-5----------7-5-| 
|5p7---5p7--------------7---7---5p7---5p7-----------------| 
|---------------------------------------------------------| 
|---------------------------------------------------------| 

ex 7 

|8b10r8-5----10b12r10-8----12b13r12-10----15b17r15-13------15-| 
|---------8-------------10-------------13-------------15b17---| 
|-------------------------------------------------------------| 
|-------------------------------------------------------------| 
|-------------------------------------------------------------| 
|-------------------------------------------------------------| 

ex 8 

|---9----8----7----5--------------| 
|---------------------------------| 
|7/9--9/8--8/7--7/6-------------7-| 
|-------------------------------6-| 
|------------------------5-6-7--7-| 
|---------------------------------| 

ex 9 
|---------------------8h10--10b12-10-8/9----| 
|-----------------8h10-------------------10-| 
|------------5h7/9--------------------------| 
|---------5h7-------------------------------| 
|---3h5/7-----------------------------------| 
|3h5----------------------------------------| 


		  

See also:

tabs Ira! - Vitrine Viva tabs Deep Purple - Black Knight tabs Deep Purple - Demonds Eye tabs Deep Purple - Smoke on the Water (ver. 2) tabs Deep Purple - Clearly Quite Absurd tabs Ira! - Envelheço na Cidade (intro)
e-chords

Other versions:

tabs Exercise - How To Play Eric Clapton Style
auto scroll beats size up size down change color hide chords drawings
tab show chords e-chords YouTube Clip e-chords hide all tabs e-chords go to top tab

share