Exercise

How To Play Dimebag Darrell Style

Exercise

tabs

by  TEUSALVES

save to print version add songbook text version e-mail correct tuner
chordsukulelecavacokeyboardtabbassdrumsharmonicaflute Guitar Pro
close

there isn't a video lesson for this song

chords

How To Play Dimebag Darrell Style

	  		ex 1  

|-----------------------------------------|  
|-----------------------------------------|  
|----------12-----------------12----------|  
|-12-14-15----15-14-12--14-15----15-14-12~|  
|-----------------------------------------|  
|-----------------------------------------|  
|-----------------------------------------|  

ex 2  

|-12-------------|------|-------|  
|----------------|------|-17b19~|  
|----15p14p12h14-|-(4x)-|-------|  
|----------------|------|-------|  
|----------------|------|-------|  
|----------------|------|-------|  

ex 3  

|-----------------------------------------------------------------|  
|-----------------------------------------------------------------|  
|----------------------------------------11H12H15--------11H12H15-|  
|----------------11H12H15--------11H12H15--------11H12H15---------|  
|--------11H12H15--------11H12H15---------------------------------|  
|11H12H15---------------------------------------------------------|  

|-------------------------11h12h15p12p11h12h15--19t/18-|  

|-11h12h15--------11h12h15-----------------------------|  

|---------11h12h15-------------------------------------|  
|------------------------------------------------------|  
|------------------------------------------------------|  
|------------------------------------------------------|  

ex 4  

|---------------|-----------------------|  
|-----17-----17-|-------17----17---17B19|  
|15/16--16/15---|-15/16----16-----16----|  
|---------------|-----------------------|  
|---------------|-----------------------|  
|---------------|-----------------------|  

EX 5  

|18-15-12-17-15-12-|-18-|  
|------------------|----|  
|------------------|----|  
|------------------|----|  
|------------------|----|  
|------------------|----|  

EX 6  

|---------------------------------20-19-|  
|------------------------17/19-20-------|  
|---------------------16----------------|  
|------------14h16h17-------------------|  
|---------14----------------------------|  
|12-14-15-------------------------------|  

EX 7  

|-----------------------------------------12H15H16--------12H15H16---|  
|--------12H15H16--------12H15H16-12H15H16--------12H15H16-----------|  
|12h15h16--------12H15H16--------------------------------------------|  
|--------------------------------------------------------------------|  
|--------------------------------------------------------------------|  
|--------------------------------------------------------------------|  

EX 8  

|-----------------------------------------------------------|  
|-----------------------------------------------------------|  
|------------------------------------------12-13-14-12-14-16|  
|-------------------------12-13-14-12-13-14-----------------|  
|--------10-11-12-12-13-14----------------------------------|  
|10-11-12---------------------------------------------------|  


|---------12h15h17p15h12----12------|  
|12h15h17----------------15----15n17|  
|-----------------------------------|  
|-----------------------------------|  
|-----------------------------------|  
|-----------------------------------|  

EX 9  

|--------------------------------------------------------------------|  
|--------------------------------------------------------------------|  
|------------------------------------------------------------11-12-14|  
|----------------------------------------------------10-12-14--------|  
|3-5-7-3-5-7/9-5-7-9/10-7-9-10/12-9-10-12/14-10-12-14----------------|  
|--------------------------------------------------------------------|  

|---------------------------------|  
|12-13-15-13-12-15b17-17b19-18b20-|  
|---------------------------------|  
|---------------------------------|  
|---------------------------------|  
|---------------------------------| 
		  

See also:

tabs Ira! - Vitrine Viva tabs Deep Purple - Black Knight tabs Deep Purple - Demonds Eye tabs Deep Purple - Smoke on the Water (ver. 2) tabs Deep Purple - Clearly Quite Absurd tabs Ira! - Envelhešo na Cidade (intro)
e-chords

Other versions:

tabs Exercise - How To Play Dimebag Darrell Style
auto scroll beats size up size down change color hide chords drawings
tab show chords e-chords YouTube Clip e-chords hide all tabs e-chords go to top tab

share