Ewan Dobson

Time 2

Ewan Dobson

tabs Expert expert

by  GUSTSILVA

save to print version add songbook text version e-mail correct tuner
chordsukulelecavacokeyboardtabbassdrumsharmonicaflute Guitar Pro
close

there isn't a video lesson for this song

chords

Time 2

Key:  C More
Time 2 Key GG
Time 2 Key G#G#
Time 2 Key AA
Time 2 Key A#A#(one step down)
Time 2 Key BB(half step down)
Time 2 Key CC(original key)
Time 2 Key C#C#(half step up)
Time 2 Key DD(one step up)
Time 2 Key D#D#
Time 2 Key EE
Time 2 Key FF
Time 2 Key F#F#
	  		Afinação: C G C G C e 

                               2X 
 
  |-------------------------------------------------------------| 
E|---------------------------------------------------------------| 
C|4-6-7-4-6-7-6-4-0-0-4-9-9-7-6--4-6-7-4-6-7-6-4-0-0-4-0-2-2-6-2-| 
G|---------------------------------------------------------------| 
C|---------------------------------------------------------------| 
G|---------------------------------------------------------------| 
C|---------------------------------------------------------------| 
 

                               2X 
 
  |-------------------------------------------------------------| 
E|---------------------------------------------------------------| 
C|---------------------------------------------------------------| 
G|---------------------------------------------------------------| 
C|4-6-7-4-6-7-6-4-0-0-4-9-9-7-6--4-6-7-4-6-7-6-4-0-0-4-0-2-2-6-2-| 
G|---------------------------------------------------------------| 
C|---------------------------------------------------------------| 
 

                                2X 
 
  |------------------------------------------------------------------| 
E|--------------------------------------------------------------------| 
C|--------------------------------------------------------------------| 
G|--------------------------------------------------------------------| 
C|--7--7--7--7--7--7--11--11---4--6--7--7--7--7--7--7--11---11---4--6-| 
G|--------------------------------------------------------------------| 
C|4--4--4--4--4--4--7---7----0--2--4--4--4--4--4--4--7----7----0---2--| 



                                            2X 
 
  |------------------------------------------------------------------------------------------| 
E|---------7--5-----------------------------2-----------7--5--------------7--8--7--0--3--5--2-| 
C|---4--7--------7--6--------7--11--7--0--4-------4--7--------7--6----------------------------| 
G|---------------------4------------7-------------------------------4-------------------------| 
C|---4-----4-----4-----4-----7-----------0--------4-----4-----4-----4-----7-----7-----0-----2-| 
G|--------------------------------------------------------------------------------------------| 
C|4-----4-----4-----7-----7-----7-----0-----2--4-----4-----4-----4-----7-----7-----0-----2----| 
 


 
E|7-----------------------------------------------------------------------| 
C|---4--------------------------------------------------------------------| 
G|------------------------------------------------------------------------| 
C|---4---4---4---4---11----11----4----6----7--7--7--7--7--7--11--11--4--6-| 
G|------------------------------------------------------------------------| 
C|4---4---4---4---7------7----0-----2----4--4--4--4--4--4--7---7---0--2---| 
 

                                                2X 
 
  |----------------------------------------------------------------------------------------------| 
E|------------------------------------------------------------------------------------------------| 
C|------------------------------------------------------------------------------------------------| 
G|------------4-----------------------------------------------4-----------------------------------| 
C|---4--6--7-----7--6--4-----7--11-7--0--4--6--2-----4--6--7-----7--6--4----7--11--12--0--4--6--2-| 
G|---4-----4-----4-----4-----7-----7-----0-----2-----4-----4-----4-----4----7------7------0-----2-| 
C|4-----4-----4-----4-----7-----7-----0-----2-----4-----4-----4-----4-----7----7-------0-----2----| 
 


 
E|--------------------------------------------------------------------| 
C|--------------------------------------------------------------------| 
G|--------------------------------------------------------------------| 
C|--7--7--7--7--7--7--11--11---4--6--7--7--7--7--7--7--11---11---4--6-| 
G|--------------------------------------------------------------------| 
C|4--4--4--4--4--4--7---7----0--2--4--4--4--4--4--4--7----7----0---2--| 
		  

auto scroll beats size up size down change color hide chords drawings
tab show chords e-chords YouTube Clip e-chords hide all tabs e-chords go to top tab

share