Every Time I Die

Typical Miracle

Every Time I Die

tabs

by  ALYSLIMA

save to print version add songbook text version e-mail correct tuner
chordsukulelecavacokeyboardtabbassdrumsharmonicaflute Guitar Pro
close

there isn't a video lesson for this song

chords

Typical Miracle

	  		


Intro (Repeat 8 times) 
e|--------------------------------------------------------------------------| 
B|-8888888888888888-7777777777777777-5555555555555555-4444444444444444------| 
G|-9999999999999999-8888888888888888-5555555555555555-4444444444444444------|     
D|--------------------------------------------------------------------------| 
A|--------------------------------------------------------------------------| 
D|--------------------------------------------------------------------------| 

Intro cont. Guitar 2 comes in with this 
e|--------------------------------------------------------------------------| 
B|--------------------------------------------------------------------------| 
G|--------------------------------------------------------------------------| 
D|--------------------------------------------------------------------------| 
A|-7t--10t-9t-6t------------------------------------------------------------| 
D|-----------------10t--9t--------------------------------------------------| 


Verse (Repeat 2 times) 
e|--------------------------------------------------------------------------| 
B|--------------------------------------------------------------------------| 
G|-----------------------------------------------------------0--------------| 
D|--7-7-10-7-7-7-10-7-7-7-10-7--6--5---7-7-10-7-7-7-10-7-----3b-------------| 
A|--7-7-10-7-7-7-10-7-7-7-10-7--6--5---7-7-10-7-7-7-10-7--------------------| 
D|--7-7-10-7-7-7-10-7-7-7-10-7--6--5---7-7-10-7-7-7-10-7--3~----------------| 

e|--------------------------------------------------------------------------| 
B|-------------------------------------8888\77\55\44444444------------------| 
G|-------------------------------------9999\88\55\44444444------------------| 
D|--7-7-10-7-7-7-10-7-7-7-10-7--6--5----------------------------------------| 
A|--7-7-10-7-7-7-10-7-7-7-10-7--6--5----------------------------------------| 
D|--7-7-10-7-7-7-10-7-7-7-10-7--6--5----------------------------------------| 


Bridge 
e|--------------------------------------------------------------------------| 
B|--8-\7-\5-\4--8-\7-\5-\4--------------------------------------------------| 
G|--9-\8-\5-\4--9-\8-\5-\4--------------------------------------------------| 
D|--------------------------------------------------------------------------| 
A|--------------------------------------------------------------------------| 
D|--------------------------------------------------------------------------| 

e|--------------------------------------------------------------------------| 
B|--------------------------------------------------------------------------| 
G|--------------------------------------------------------------------------| 
D|--11-10-7-8-7-0-0-10-11-10-7-8-7-11-10-7-8-7-0-0-10-11-10-7-8-7-----------| 
A|--11-10-7-8-7-0-0-10-11-10-7-8-7-11-10-7-8-7-0-0-10-11-10-7-8-7-----------| 
D|--11-10-7-8-7-0-0-10-11-10-7-8-7-11-10-7-8-7-0-0-10-11-10-7-8-7-----------| 


e|--------------------------------------------------------------------------| 
B|--------------------------------------------------------------------------| 
G|--------------------------------------------------------------------------| 
D|--11-10-7-8-7-0-0-10-11-10-7-8-7-11-10-7-8-7-0-0-10-11-10-7-8-7-----------| 
A|--11-10-7-8-7-0-0-10-11-10-7-8-7-11-10-7-8-7-0-0-10-11-10-7-8-7-----------| 
D|--11-10-7-8-7-0-0-10-11-10-7-8-7-11-10-7-8-7-0-0-10-11-10-7-8-7-----------| 



e|--------------------------------------------------------------------------| 
B|--------------------------------------------------------------------------| 
G|--------------------------------------------------------------------------| 
D|--9~--8~--5~--4*\---------------------------------------------------------| 
A|--7~----------------------------------------------------------------------| 
D|--------------------------------------------------------------------------| 

e|--------------------------------------------------------------------------| 
B|--------------------------------------------------------------------------| 
G|--------------------------------------------------------------------------| 
D|-----------------------------6-5---------------------------6--------------| 
A|-----------------------------6-5---------------------------6--------------| 
D|--7-7-10-7-7-7-10-7-7-7-10-7-6-5--7-7-10-7-7-7-10-7-7-7-10-6--------------| 

Back to Verse riff 
e|--------------------------------------------------------------------------| 
B|--------------------------------------------------------------------------| 
G|-----------------------------------------------------------0--------------| 
D|--7-7-10-7-7-7-10-7-7-7-10-7--6--5---7-7-10-7-7-7-10-7-----3b-------------| 
A|--7-7-10-7-7-7-10-7-7-7-10-7--6--5---7-7-10-7-7-7-10-7--------------------| 
D|--7-7-10-7-7-7-10-7-7-7-10-7--6--5---7-7-10-7-7-7-10-7--3~----------------| 

e|--------------------------------------------------------------------------| 
B|-------------------------------------8888\77\55\44444444------------------| 
G|-------------------------------------9999\88\55\44444444------------------| 
D|--7-7-10-7-7-7-10-7-7-7-10-7--6--5----------------------------------------| 
A|--7-7-10-7-7-7-10-7-7-7-10-7--6--5----------------------------------------| 
D|--7-7-10-7-7-7-10-7-7-7-10-7--6--5----------------------------------------| 

Outro (Repeat 2 times) 
e|----------------------------------------------0---------------------------| 
B|--------------------------------------------0-----------------------------| 
G|------------------------------------------3-----3b--3~--------------------| 
D|--7--7-10-7--7-10-7--6--5--7--7-10-7--------------------------------------| 
A|--7--7-10-7--7-10-7--6--5--7--7-10-7--------------------------------------| 
D|--7--7-10-7--7-10-7--6--5--7--7-10-7--3~----------------------------------| 


e|--------------------------------------------------------------------------| 
B|---------------------------------8----------------------------------------| 
G|---------------------------9~--9---9-11~---5-5-4-4\-----------------------| 
D|--7--7-10-7--7-10-7--6--5-------------------------------------------------| 
A|--7--7-10-7--7-10-7--6--5-------------------------------------------------| 
D|--7--7-10-7--7-10-7--6--5-------------------------------------------------| 

e|--------------------------------------------------------------------------| 
B|--------------------------------------------------------------------------| 
G|--------------------------------------------------------------------------| 
D|--7--7-10-7--7-10-7--6--5--7----------------------------------------------| 
A|--7--7-10-7--7-10-7--6--5--7----------------------------------------------| 
D|--7--7-10-7--7-10-7--6--5--7----------------------------------------------| 

 
		  

See also:

tabs Jack Johnson - Good People tabs Rage Against The Machine - Killing In The Name (ver. 2) tabs Blue Oyster Cult - Dont Fear The Reaper tabs R.E.M. - Losing my religion tabs Smashing Pumpkins - Today tabs Foo Fighters - Learn to Fly (acoustic version)
e-chords

Other versions:

tabs Every Time I Die - Typical Miracle
auto scroll beats size up size down change color hide chords drawings
tab show chords e-chords YouTube Clip e-chords hide all tabs e-chords go to top tab

share