Every Time I Die

Thirst

Every Time I Die

tabs

by  GUSTSILVA

save to print version add songbook text version e-mail correct tuner
chordsukulelecavacokeyboardtabbassdrumsharmonicaflute Guitar Pro
close

there isn't a video lesson for this song

chords

Thirst

Key:  D More
Thirst Key AA
Thirst Key A#A#
Thirst Key BB
Thirst Key CC(one step down)
Thirst Key C#C#(half step down)
Thirst Key DD(original key)
Thirst Key D#D#(half step up)
Thirst Key EE(one step up)
Thirst Key FF
Thirst Key F#F#
Thirst Key GG
Thirst Key G#G#
	  		
Guitar 1: Left Stereo 
Guitar 2: Right Stereo 

SECTION 1  
Both Guitars 
E|------------------------------------------------------| 
B|------------------------------------------------------| 
G|-------------------------------------------8-8----8-8-| 
D|-2-2--0-4-3--0-2-2--0-4-3--0-2-2--0-4-3--0-x-x--7-x-x-|x2 
A|-2-2--0-4-3--0-2-2--0-4-3--0-2-2--0-4-3--0-6-6--7-6-6-| 
D|-2-2--0-4-3--0-2-2--0-4-3--0-2-2--0-4-3--0------7-----| 

SECTION 2 
Both Guitars 
E|--------------------------------------------------------| 
B|--------------------------------------------------------| 
G|-1010----1010----10-9-8------1010----1010---------------| 
D|-1010--9-1010--9-10-9-8-10~--1010--9-1010--9-9-9--9-9-7-|x2 
A|--8-8--9--8-8--9--------------8-8--9--8-8--9-9-9--9-9-7-| 
D|-------9-------9-------------------9-------9-9-9--9-9-7-| 

REPEAT SECTION 1 

SECTION 3 (pretty much identical to SECTION 2) 
Both Guitars (only Guitar 2 plays parentheses the 2nd time through 
E|----------------------------------------------------------| 
B|----------------------------------------------------------| 
G|-1010----1010----(10-9-8----)--1010----1010---------------| 
D|-1010--9-1010--9-(10-9-8-10~)--1010--9-1010--9-9-9--9-9-7-|x2 
A|--8-8--9--8-8--9----------------8-8--9--8-8--9-9-9--9-9-7-| 
D|-------9-------9---------------------9-------9-9-9--9-9-7-| 

E|--------------------------------------0--| 
B|--------------------------------------0--| 
G|--------------------------------------0--| 
D|-9-9-9--9-9-7--9-9-9--9--9--7--5--3---0--| 
A|-9-9-9--9-9-7--9-9-9--9--9--7--5--3------| 
D|-9-9-9--9-9-7--9-9-9--9--9--7--5--3------| 

SECTION 4 
Both Guitars 
E|--------0--------0--------0-------------| 
B|--------0--------0--------0-------------| 
G|--------0--------0--------0-------------| 
D|--------0--------0--------0-------------|x2 
A|-------------------------------------6b-| 
D|-(bass)---(bass)---(bass)---(bass)-5----| 

SECTION 5 
Both Guitars 
E|-----------0------------0------------0-----------------| 
B|-----------0------------0------------0-----------------| 
G|-----------0------------0------------0--------------8--| 
D|-2-2-2-4-3-0--2-2-2-4-3-0--2-2-2-4-3-0--2-2-2-4-3-0-x--|x2 
A|-2-2-2-4-3----2-2-2-4-3----2-2-2-4-3----2-2-2-4-3-0-6--| 
D|-2-2-2-4-3----2-2-2-4-3----2-2-2-4-3----2-2-2-4-3-0----| 

E|-----------------------| 
B|-----------------------| 
G|-------------------8---| 
D|-2--2--2--4--3--0--x---| 
A|-2--2--2--4--3--0--6---| 
D|-2--2--2--4--3--0------| 

Short, but sweet. Not sure if this is how they play it exactly, 
but it should get you a very close sound. 
Please rate & comment. 
Thanks, 
millarso 

************************************ 

| /   slide up 
| \   slide down 
| h   hammer-on 
| p   pull-off 
| ~   vibrato 
| +   harmonic 
| x   Mute note 
| b   Bend 
| pb  Pre-bend 
| br  Bend release 
| pbr Pre-bend release 
| brb Bend release bend 

************************************ 
		  

See also:

tabs Jack Johnson - Good People tabs Rage Against The Machine - Killing In The Name (ver. 2) tabs Blue Oyster Cult - Dont Fear The Reaper tabs R.E.M. - Losing my religion tabs Smashing Pumpkins - Today tabs Foo Fighters - Learn to Fly (acoustic version)
e-chords

Other versions:

tabs Every Time I Die - Thirst
auto scroll beats size up size down change color hide chords drawings
tab show chords e-chords YouTube Clip e-chords hide all tabs e-chords go to top tab

share