Every Time I Die

Moor

Every Time I Die

tabs

by  CARLLUZ

save to print version add songbook text version e-mail correct tuner
chordsukulelecavacokeyboardtabbassdrumsharmonicaflute Guitar Pro
close

there isn't a video lesson for this song

chords

Moor

	  		


INTRO (Piano) (x3) 

   "Pay no mind to the stranger in the 4 AM..." 
e |------------|------------|------------|-------------| 
B |------------|------------|------------|-------------| 
G |------------|------------|------------|-------------| 
D |------------|------------|------------|-------------| 
A |-4--4--4--4-|-4--4--4--4-|-4--4--4--4-|-4-----------| 
A#|------------|------------|------------|----4-5-7--0-| (x3) 

   "...and you had to let go." 
e |------------|------------|------------|-------------| 
B |------------|------------|------------|-------------| 
G |------------|------------|------------|-------------| 
D |------------|------------|------------|-------------| 
A |-4--4--4--4-|-4--4--4----|------------|-------------| 
A#|------------|----------0-|-2--2--2--0-|-1--1--1--0--| 


PART I (Guitar) (x2) 

   "Lost you in the overflowing fog..." 
e |------------|------------|------------|-------------| 
B |------------|------------|------------|-------------| 
G |------------|------------|------------|-------------| 
D |-6--6--6--6-|-6--6--6--6-|-6--6--6--6-|-6-----------| 
A |-4--4--4--4-|-4--4--4--4-|-4--4--4--4-|-4-----------| 
A#|------------|------------|------------|----4-5-7--0-| (x3) 

e |------------|------------|------------|-------------| 
B |------------|------------|------------|-------------| 
G |------------|------------|------------|-------------| 
D |-6--6--6--6-|-6--6--6----|------------|-------------| 
A |-4--4--4--4-|-4--4--4----|------------|-------------| 
A#|------------|----------0-|-2--2--2--0-|-1--1--1--0--| 


PART II (Guitar) 

   "Heaven smiles on me now and then..." 
e |------------|------------|------------|-------------| 
B |------------|------------|------------|-------------| 
G |------------|------------|------------|-------------| 
D |------------|------------|------------|-------------| 
A |-1----------|------------|------------|-------------| 
A#|-0----------|------------|------------|----4-5-7--0-| 


PART III (Guitar) (x4) 

   "All I want is his head..." 
e |------------|------------|------------|-----------0-| 
B |------------|------------|------------|-----------0-| 
G |------------|------------|------------|-----------0-| 
D |------------|------------|------------|-------------| 
A |-1--1--1--1-|-1--1--1--1-|-1--1--1--1-|-1-----------| 
A#|-0--0--0--0-|-0--0--0--0-|-0--0--0--0-|-0--4-5-7----| 

e |------------|----------0-|----------0-|----------0--| 
B |------------|----------0-|----------0-|----------0--| 
G |------------|----------0-|----------0-|----------0--| 
D |------------|------------|------------|-------------| 
A |-1--1--1--1-|-1--1--1----|------------|-------------| 
A#|-0--0--0--0-|-0--0--0----|-2--2--2----|-1--1--1-----| 


OUTRO (Piano) 

   "There's nothing that I couldn't do..." 
e |------------|------------|------------|-------------| 
B |------------|------------|------------|-------------| 
G |------------|------------|------------|-------------| 
D |------------|------------|------------|-------------| 
A |-4--4--4--4-|-4--4--4--4-|-4--4--4--4-|-4-----------| 
A#|------------|------------|------------|----4-5-7--0-| 

e |------------|------------|------------|-------------| 
B |------------|------------|------------|-------------| 
G |------------|------------|------------|-------------| 
D |------------|------------|------------|-------------| 
A |-4--4--4--4-|-4--4--4----|------------|----------1--| 
A#|------------|----------0-|-2--2--2--0-|-1--1--1--0--| 


************************************ 

| /   slide up 
| \   slide down 
| h   hammer-on 
| p   pull-off 
| ~   vibrato 
| +   harmonic 
| x   Mute note 
| b   Bend 
| pb  Pre-bend 
| br  Bend release 
| pbr Pre-bend release 
| brb Bend release bend 

************************************ 
		  

See also:

tabs Jack Johnson - Good People tabs Rage Against The Machine - Killing In The Name (ver. 2) tabs Blue Oyster Cult - Dont Fear The Reaper tabs R.E.M. - Losing my religion tabs Smashing Pumpkins - Today tabs Foo Fighters - Learn to Fly (acoustic version)
e-chords

Other versions:

tabs Every Time I Die - Moor
auto scroll beats size up size down change color hide chords drawings
tab show chords e-chords YouTube Clip e-chords hide all tabs e-chords go to top tab

share