Every Time I Die

Exometrium

Every Time I Die

tabs

by  HEBEALMEIDA

save to print version add songbook text version e-mail correct tuner
chordsukulelecavacokeyboardtabbassdrumsharmonicaflute Guitar Pro
close

there isn't a video lesson for this song

chords

Exometrium

	  		

Guitar 1: Left Channel 
Guitar 2: Right Channel 

SECTION 1 
Both Guitars 
E|-------------------------------------------------------------------| 
B|-------------------------------------------------------------------| 
G|-------------------------------------------------------------------| 
D|-5--4-------------4--5\-----------5--4-------------4--5\-----------|x2 
A|-5--4--6----4-----------2----1----5--4--6----4-----------2---------| 
D|-5--4----5-----4p0--------1-----0-5--4----5-----4p0--------4--4--4-| 

TRANSITION 1 
Both Guitars (only Guitar 2 plays last note) 
E|---------------------------| 
B|---------------------------| 
G|---------------------------| 
D|-------------------------4-| 
A|-------------------------3-| 
D|-4--4--4-4--4--4-4--4--4-4-|  
|| 
Extra Guitar 
E|---------------------------| 
B|---------7-7-7-7-7-7-7-7-7-| 
G|---------5-5-5-5-5-5-5-5-5-| 
D|---------4-4-4-4-4-4-4-4-4-| 
A|---------------------------| 
D|---------------------------| 

SECTION 2 
Guitar 1 (let notes ring as much as possible) 
E|---------------------------------------------------------------| 
B|-----4---5p4---6p4-------6----------4---5p4---6p4-------6------| 
G|-4h5---5-----5-----0h5p0----4p0-4h5---5-----5-----0h5p0----4p0-| 
D|---------------------------------------------------------------| 
A|---------------------------------------------------------------| 
D|---------------------------------------------------------------| 
|| 
Guitar 2 
E|---------------------------------------------------------------| 
B|---------------------------------------------------------------| 
G|---------------------------------------------------------------| 
D|---------------------------------------------10-9-8-0---10-9-0-| 
A|-------------------------------------------8-10-9-8-0-8-10-9-0-| 
D|---------------------------------------------10-9-8-0---10-9-0-| 

Guitar 1 (let notes ring as much as possible) 
E|---------------------------------------------------------------| 
B|-----4---5p4---6p4-------6----------4---5p4---6p4-------6------| 
G|-4h5---5-----5-----0h5p0----4p0-4h5---5-----5-----0h5p0----4p0-| 
D|---------------------------------------------------------------| 
A|---------------------------------------------------------------| 
D|---------------------------------------------------------------| 
|| 
Guitar 2 
E|---------------------------------------------------------------| 
B|---------------------------------------------------------------| 
G|---------------------------------------------------------------| 
D|-------------------------10-9-0--------------10-9-8-0---10-9-0-| 
A|-----------------------8-10-9-0------------8-10-9-8-0-8-10-9-0-| 
D|-------------------------10-9-0--------------10-9-8-0---10-9-0-| 

SECTION 3 
Both Guitars 
E|---------------------------------| 
B|---------------------------------| 
G|---------------------------------| 
D|-----1---2-1---3-----1---3-------|x4 
A|-2-3---3-----3---3-2---2---3-2-0-| 
D|---------------------------------| 

SECTION 4 
E|----------------------------| 
B|----------------------------| 
G|----------------------------| 
D|----4p0---5-----------------|x7 
A|---------------7-6-4--6---4-| 
D|-4------4----4----------5---| 

E|--------------------------------------| 
B|--------------------------------------| 
G|--------------------------------------| 
D|----4p0---5---------------------------| 
A|---------------7-6-4--6---4\--2---1---| 
D|-4------4----4----------5-------1---0-| 

REPEAT SECTION 2 

TRANSITION 2 
E|-----------------| 
B|-----------------| 
G|-----------------| 
D|-----------------| 
A|-----------------| 
D|-4--4--4-4--4--4-| 

REPEAT SECTION 3 

TRANSITION 3 
E|-<7><7><7><7>-| 
B|-<7><7><7><7>-| 
G|-<7><7><7><7>-| 
D|-<7><7><7><7>-| 
A|--------------| 
D|--------------| 

SECTION 5 
Guitar 1 
E|---------------------------------------------------------| 
B|---------------------------------------------------------| 
G|---------------------------------------------------------| 
D|-----1-------1-----3-------------1-------3---------------|x2 
A|-2-3---3-0-0---2-3---0-0-0-0-3-2---3-0-0---3-2-0---------| 
D|---------0-0---------0-0-0-0---------0-0---------4-4-4-4-| 
||         . .         . . . .         . . 
Guitar 2 
E|---------------------------------------------------------| 
B|---------------------------------------------------------| 
G|---------------------------------------------------------| 
D|---------------------------------------------------------|x2 
A|---------0-0---------0-0-0-0---------0-0-----------------| 
D|---------0-0---------0-0-0-0---------0-0---------4-4-4-4-| 
           . .         . . . .         . . 
SECTION 6 
Both Guitars 
E|-----------------------------------------------------------------------| 
B|-----------------------------------------------------------------------| 
G|-----1---2h1---3-----1---3-----------1---2h1---3-----1---3-------------| 
D|-2h3-1-3-2h1-3-3-3h2-1-2-3-3-2-0-2h3-1-3-2h1-3-3-3h2-1-2-3-3-2-0-------| 
A|-2h3---3-----3---3h2---2---3-2-0-2h3---3-----3---3h2---2---3-2-0-------| 
D|-----------------------------------------------------------------44444-| 
                                                                   ..... 

E|-------------------------------------------------| 
B|-------------------------------------------------| 
G|-----1---2h1---3-----1---3-----------------------| 
D|-2h3-1-3-2h1-3-3-3h2-1-2-3-3-2-0-----------------| 
A|-2h3---3-----3---3h2---2---3-2-0-----------------| 
D|---------------------------------4--4--4-4--4--4-| 

E|-----------------------------------------------------------------------| 
B|-----------------------------------------------------------------------| 
G|-----1---2h1---3-----1---3-----------1---2h1---3-----1---3-------------| 
D|-2h3-1-3-2h1-3-3-3h2-1-2-3-3-2-0-2h3-1-3-2h1-3-3-3h2-1-2-3-3-2-0-------| 
A|-2h3---3-----3---3h2---2---3-2-0-2h3---3-----3---3h2---2---3-2-0-------| 
D|-----------------------------------------------------------------44444-| 
                                                                   .....  
E|-----------------------------------------------------------------| 
B|-----------------------------------------------------------------| 
G|-----------------------------------------------------------------| 
D|-----1---2-1---3-----1---3---------------------------------------| 
A|-2-3---3-----3---3-2---2---3-2-0---------------------------------| 
D|---------------------------------4--4--4-4--4--4-4--4--4-4--4--4-| 

REPEAT SECTION 4 

SECTION 7 
Both Guitars 
E|-----------------------------------------------------------------------------------------------| 
B|-----------------------------------------------------------------------------------------------| 
G|-----------------------------------------------------------------------------------------------| 
D|-----------------------------------------------------------------------------------------------|x2 
A|----2---1----2--------2------2-------------2---1----2--------2------2---1----2---------(Gtr 1)-| 
D|-0----1---0----1-0--4---1-0----1-0-0----0----1---0----1-0--4---1-0----1---0----1-0--000-(000)--| 
                                                                                      ...  ... 
SECTION 8 
Both Guitars (play last note on last repeat) 
E|-----------------------------------------------------------------------| 
B|-----------------------------------------------------------------------| 
G|-----------------------------------------------------------------------| 
D|-5--4-------------4--5\-----------5--4-------------4--5\---------------|x2 
A|-5--4--6----4-----------2----1----5--4--6----4-----------2-------------| 
D|-5--4----5-----4p0--------1-----0-5--4----5-----4p0--------4--4--4-(4)-| 

This is honestly one of the most difficult songs to tab I have ever run into. 
It is also one of the harder ones to play. There are some really complex riffs 
in this song, but they are killer if you can get them right. If you see anything 
that you would change let me know. 
Please rate & comment. 
Thanks, 
millarso 

************************************ 

| /   slide up 
| \   slide down 
| h   hammer-on 
| p   pull-off 
| ~   vibrato 
| +   harmonic 
| x   Mute note 
| b   Bend 
| pb  Pre-bend 
| br  Bend release 
| pbr Pre-bend release 
| brb Bend release bend 

************************************ 
		  

See also:

tabs Jack Johnson - Good People tabs Rage Against The Machine - Killing In The Name (ver. 2) tabs Blue Oyster Cult - Dont Fear The Reaper tabs R.E.M. - Losing my religion tabs Smashing Pumpkins - Today tabs Foo Fighters - Learn to Fly (acoustic version)
e-chords

Other versions:

tabs Every Time I Die - Exometrium
auto scroll beats size up size down change color hide chords drawings
tab show chords e-chords YouTube Clip e-chords hide all tabs e-chords go to top tab

share