Every Time I Die

El Dorado

Every Time I Die

tabs

by  FERNSANTANA

save to print version add songbook text version e-mail correct tuner
chordsukulelecavacokeyboardtabbassdrumsharmonicaflute Guitar Pro
close

there isn't a video lesson for this song

chords

El Dorado

	  		

Guitar 1: Left Stereo 
Guitar 2: Right Stereo 

INTRO 
Guitar 1 
E|---------------------------------------------------| 
B|---------------------------------------------------| 
G|---------------------------------------------------| 
D|-5---------------5---------------5---------------5-| 
A|-5---------------5---------------5---------------5-| 
D|-5---------------5---------------5---------------5-| 
|| 
Guitar 2 
E|---------------------------------------------------| 
B|---------------------------------------------------| 
G|-----------6-5-------------6-5-------------6-5-----| 
D|-5---8-5-8-6-5-8-5---8-5-8-6-5-8-5---8-5-8-6-5-8-5-| 
A|-5---8-5-8-----8-5---8-5-8-----8-5---8-5-8-----8-5-| 
D|-5---------------5---------------5---------------5-| 

SECTION 1 
Both Guitars 
E|------------------------------| 
B|------------------------------| 
G|------------------------------| 
D|-3--5-5-3-3-5-5-3-3s5---6--6--|x3 
A|-3--5-5-3-3-5-5-3-3s5-0-6--6--| 
D|-3--5-5-3-3-5-5-3-3s5-0-6--6--| 
                        . 
Guitar 1 
E|------------------------------------------------------------------| 
B|------------------------------------------------------------------| 
G|------------------------------------------------3p2---------------| 
D|-10--8-8-10-10-8-8-10-10-8\5-3--3-----------3h5-----5p3-5p0-------| 
A|-10--8-8-10-10-8-8-10-10-8\5-3--3-----1-3s5-----------------3h5p0-| 
D|-10--8-8-10-10-8-8-10-10-8\5-3--3--3------------------------------| 
|| 
Guitar 2 
E|------------------------------------------------------------------| 
B|------------------------------------------------6p5---------------| 
G|--------------------------------------------5h7-----0h5h7---------| 
D|-10--8-8-10-10-8-8-10-10-8\5-3--3-----3-5s7---------------0h5h7p0-| 
A|-10--8-8-10-10-8-8-10-10-8\5-3--3--3------------------------------| 
D|-10--8-8-10-10-8-8-10-10-8\5-3--3---------------------------------| 

SECTION 2 
Guitar 1 
E|-15--15-15-15-15-15-15-15-15-15-15-15-15-15-15-13--13-13-13-13-13-13-13-13-13-13-13-13-13-13-| 
B|-15--15-15-15-15-15-15-15-15-15-15-15-15-15-15-13--13-13-13-13-13-13-13-13-13-13-13-13-13-13-| 
G|-12--12-12-12-12-12-12-12-12-12-12-12-12-12-12-10--10-10-10-10-10-10-10-10-10-10-10-10-10-10-| 
D|---------------------------------------------------------------------------------------------|x2 
A|---------------------------------------------------------------------------------------------| 
D|---------------------------------------------------------------------------------------------| 
|| 
Guitar 2 
E|---------------------------------------------------------------| 
B|---------------------------------------------------------------| 
G|---------------------------------------------------------------| 
D|-5--5-5-5-5-5-5-5-5-------------3--3-3-3-3-3-3-3-3-------------|x2 
A|-5--5-5-5-5-5-5-5-5-------------3--3-3-3-3-3-3-3-3-------------| 
D|-5--5-5-5-5-5-5-5-5-8-7-5-3-5-0-3--3-3-3-3-3-3-3-3-8-7-5-3-5-0-| 

SECTION 3 
Both Guitars 
E|----------------------------------------------------------------| 
B|----------------------------------------------------------------| 
G|-----------6-5-------------6-5-------------6-5------------------| 
D|-5---8-5-8-6-5-8-5---8-5-8-6-5-8-5---8-5-8-6-5-8-5--3-3-3-3-5-3-|x2 
A|-5---8-5-8-----8-5---8-5-8-----8-5---8-5-8-----8-5--3-3-3-3-5-3-| 
D|-5---------------5---------------5---------------5--3-3-3-3-5-3-| 

Guitar 1 
E|-------------------------------------------------15--13-13-13-13-15-13-| 
B|-------------------------------------------------15--13-13-13-13-15-13-| 
G|-------------------------------------------------12--10-10-10-10-12-10-| 
D|------11--------------11--------------11-------------------------------| 
A|-pb12----12r11---pb12----12r11---pb12----12r11-------------------------| 
D|-----------------------------------------------------------------------| 
|| 
Guitar 2 
E|----------------------------------------------------------------| 
B|----------------------------------------------------------------| 
G|-----------6-5-------------6-5-------------6-5------------------| 
D|-5---8-5-8-6-5-8-5---8-5-8-6-5-8-5---8-5-8-6-5-8-5--3-3-3-3-5-3-| 
A|-5---8-5-8-----8-5---8-5-8-----8-5---8-5-8-----8-5--3-3-3-3-5-3-| 
D|-5---------------5---------------5---------------5--3-3-3-3-5-3-| 

REPEAT SECTION 2 

SECTION 4 
Guitar 1 
E|-------------------------------------------------15--13-13-13-13-15-13-| 
B|-------------------------------------------------15--13-13-13-13-15-13-| 
G|-------------------------------------------------12--10-10-10-10-12-10-| 
D|------11--------------11--------------11-------------------------------|x2 
A|-pb12----12r11---pb12----12r11---pb12----12r11-------------------------| 
D|-----------------------------------------------------------------------| 
|| 
Guitar 2 
E|----------------------------------------------------------------| 
B|----------------------------------------------------------------| 
G|-----------6-5-------------6-5-------------6-5------------------| 
D|-5---8-5-8-6-5-8-5---8-5-8-6-5-8-5---8-5-8-6-5-8-5--3-3-3-3-5-3-|x2 
A|-5---8-5-8-----8-5---8-5-8-----8-5---8-5-8-----8-5--3-3-3-3-5-3-| 
D|-5---------------5---------------5---------------5--3-3-3-3-5-3-| 

Guitar 1 
E|---------------10--------\-| 
B|-10------------10--------\-| 
G|-12b14---------12b14-----\-| 
D|---------------------------| 
A|---------------------------| 
D|---------------------------| 
|| 
Guitar 2 
E|-------------| 
B|-------------| 
G|-7-------7\--| 
D|-7-(x32)-7\--| 
A|-5-5-5-5-5\--| 
D|-------------| 

SECTION 5 
Guitar 2 
E|--------------------------------------|  |-----------------------------------------| 
B|--------------------------------------|  |--------------------(Both-Guitars)-------| 
G|--------------------------------------|  |---------------(12-12-10-10-12-12-10-10)-| 
D|-------------------10s12---13---10s12-|x3|---------------(12-12-10-10-12-12-10-10)-| 
A|-0-0-0-0-0-0-0-0-0-10s12-0-13-0-10s12-|  |-0-0-0-0-0-0-0-(10-10--8--8-10-10--8--8)-| 
D|-0-0-0-0-0-0-0-0-0-10s12-0-13-0-10s12-|  |-0-0-0-0-0-0-0---------------------------| 
   . . . . . . . . .       .    .            . . . . . . . 

Both Guitars 
E|------------------------------------------------------------------------------| 
B|------------------------------------------------------------------------------| 
G|------------------------------------------------------------------------------| 
D|-10-s12---------------10s12---13---10s12-------------------10s12---13---10s12-| 
A|-10-s12-0-0-0-0-0-0-0-10s12-0-13-0-10s12-0-0-0-0-0-0-0-0-0-10s12-0-13-0-10s12-| 
D|-10-s12-0-0-0-0-0-0-0-10s12-0-13-0-10s12-0-0-0-0-0-0-0-0-0-10s12-0-13-0-10s12-| 
          . . . . . . .       .    .       . . . . . . . . .       .    . 

E|---------------------------------------------------------------------| 
B|---------------------------------------------------------------------| 
G|----------------------------------------------------12--10--12-12-10-| 
D|-------------------10s12---13---10s12---------------12--10--12-12-10-| 
A|-0-0-0-0-0-0-0-0-0-10s12-0-13-0-10s12-0-0-0-0-0-0-0-10---8--10-10--8-| 
D|-0-0-0-0-0-0-0-0-0-10s12-0-13-0-10s12-0-0-0-0-0-0-0------------------| 
   . . . . . . . . .       .    .       . . . . . . . 

E|------------------------------------------------------------------------------| 
B|------------------------------------------------------------------------------| 
G|------------------------------------------------------------------------------| 
D|-10-s12---------------10s12---13---10s12-------------------10s12---13---10s12-| 
A|-10-s12-0-0-0-0-0-0-0-10s12-0-13-0-10s12-0-0-0-0-0-0-0-0-0-10s12-0-13-0-10s12-| 
D|-10-s12-0-0-0-0-0-0-0-10s12-0-13-0-10s12-0-0-0-0-0-0-0-0-0-10s12-0-13-0-10s12-| 
          . . . . . . .       .    .       . . . . . . . . .       .    . 

E|----------------------------------------------------------------------------------------| 
B|----------------------------------------------------------------------------------------| 
G|----------------------------------------------------12--10--12-12-10--12-12-10----------| 
D|-------------------10s12---13---10s12---------------12--10--12-12-10--12-12-10--10--10--| 
A|-0-0-0-0-0-0-0-0-0-10s12-0-13-0-10s12-0-0-0-0-0-0-0-10---8--10-10--8--10-10--8--10--10--| 
D|-0-0-0-0-0-0-0-0-0-10s12-0-13-0-10s12-0-0-0-0-0-0-0-----------------------------10--10--| 
   . . . . . . . . .       .    .       . . . . . . . 

Guitar 1 
E|--------------------------------| 
B|--------------6p5---------------| 
G|----------5h7-----0h5h7---------| 
D|----3-5s7---------------0h5h7p0-| 
A|-3------------------------------| 
D|--------------------------------| 
|| 
Guitar 2 
E|------------------------------------------| 
B|------------------11p10-------------------| 
G|------------10h12-------0h10h12-----------| 
D|----8-10s12---------------------0h10h12p0-| 
A|-8----------------------------------------| 
D|------------------------------------------| 

REPEAT SECTION 1 x2 

REPEAT SECTION 2 

SECTION 6 
Both Guitars 
E|----------------------------------------------------------------| 
B|----------------------------------------------------------------| 
G|-----------6-5-------------6-5-------------6-5------------------| 
D|-5---8-5-8-6-5-8-5---8-5-8-6-5-8-5---8-5-8-6-5-8-5--3-3-3-3-5-3-| 
A|-5---8-5-8-----8-5---8-5-8-----8-5---8-5-8-----8-5--3-3-3-3-5-3-| 
D|-5---------------5---------------5---------------5--3-3-3-3-5-3-| 

Guitar 1 
E|--------------------------------------------------------------------| 
B|--------------------------------------------------------------------| 
G|--------------------------------------------------------------------| 
D|-5---------------5---------------5---------------5--3-3-3-3-5-3-5---| 
A|-5---------------5---------------5---------------5--3-3-3-3-5-3-5---| 
D|-5---------------5---------------5---------------5--3-3-3-3-5-3-5---| 
|| 
Guitar 2 
E|--------------------------------------------------------------------| 
B|--------------------------------------------------------------------| 
G|-----------6-5-------------6-5-------------6-5----------------------| 
D|-5---8-5-8-6-5-8-5---8-5-8-6-5-8-5---8-5-8-6-5-8-5--3-3-3-3-5-3-5---| 
A|-5---8-5-8-----8-5---8-5-8-----8-5---8-5-8-----8-5--3-3-3-3-5-3-5---| 
D|-5---------------5---------------5---------------5--3-3-3-3-5-3-5---| 

SECTION 7 
Both Guitars 
E|-----------------------------------------| 
B|-----------------------------------------| 
G|-----------------------------------------| 
D|-0--0-3h5-3--0-3h5-6--0-3h5-3--0-3h5-8-5-|x2 
A|-0--0-3h5-3--0-3h5-6--0-3h5-3--0-3h5-8-5-| 
D|-0--0-3h5-3--0-3h5-6--0-3h5-3--0-3h5-8-5-| 

E|------------------------------------------------------| 
B|------------------------------------------------------| 
G|------------------------------------------------------| 
D|-0----------------------------------------------15-12-|x2 
A|-0----------------------------------------------15-12-| 
D|-0--0-10h12-10--0-10h12-13--0-10h12-10--0-10h12-15-12-| 

Keep REPEATING SECTION 7 until the end 

A little on the more standard rock side of things, but a fun song 
to jam. Enjoy. 
Please rate & comment. 
Thanks, 
millarso 

************************************ 

| s   slide between notes 
| /   slide up 
| \   slide down 
| h   hammer-on 
| p   pull-off 
| ~   vibrato 
| +   harmonic 
| x   Mute note 
| b   Bend 
| pb  Pre-bend 
| br  Bend release 
| pbr Pre-bend release 
| brb Bend release bend 

************************************ 
		  

See also:

tabs Jack Johnson - Good People tabs Rage Against The Machine - Killing In The Name (ver. 2) tabs Blue Oyster Cult - Dont Fear The Reaper tabs R.E.M. - Losing my religion tabs Smashing Pumpkins - Today tabs Foo Fighters - Learn to Fly (acoustic version)
e-chords

Other versions:

tabs Iron Maiden - El Dorado tabs Every Time I Die - El Dorado
auto scroll beats size up size down change color hide chords drawings
tab show chords e-chords YouTube Clip e-chords hide all tabs e-chords go to top tab

share