Every Time I Die

All Structures Are Unstable

Every Time I Die

tabs

by  ALEFFEDERICO

save to print version add songbook text version e-mail correct tuner
chordsukulelecavacokeyboardtabbassdrumsharmonicaflute Guitar Pro
close

there isn't a video lesson for this song

chords

All Structures Are Unstable

	  		

Tuning: Drop D 

Guitar 1: Left Stereo 
Guitar 2: Right Stereo 

SECTION 1 
Both Guitars 
E|--------------------------------------------------| 
B|--------------------------------------------------| 
G|---8------------------------8----------6-6----8-8-| 
D|---7----6-5-----------------7----------6-6----8-8-| 
A|-0-5--0-----7-8-----------0-5--0-------4-4--0-6-6-| 
D|-0-0--0---------6-5-2-3-0-0-0--0-7-8-0------0-----| 
   .    .                   .    .            . 

                                         1st time       2nd time       
E|---------------------------------------|--------------|----------| 
B|---------------------------------------|-------7-8\-|---5-6-8\-| 
G|---8------------------------8----------|-7-8\-------|-7--------| 
D|---7----6-5-----------------7----------|--------------|----------| 
A|-0-5--0-----7-8-----------0-5--0-------|--------------|----------| 
D|-0-0--0---------6-5-2-3-0-0-0--0-7-8-0-|--------------|----------| 
   .    .                   .    .                       (let the 7 ring) 

NOTE: The bracketed notes above need an octave pedal up and maybe 
a very slight bend right before the slide, or if you want to try 
without the pedal you could try to replace them with this... 

E|---------14-15\-----------------------------------| 
B|-15-16\---x--x------------------------------------| 
G|--x--x---11-12\-----------------------------------| 
D|-12-13\-------------------------------------------| 
A|--------------------------------------------------| 
D|--------------------------------------------------| 

REPEAT SECTION 1 

SECTION 2 
Both Guitars 
E|---------------------------------------------------------------| 
B|---------------------------------------------------------------| 
G|-----------------5---------------------------------------------| 
D|-2-----------------4-------1-------------1-0-------------0-(2)-| 
A|-2-------------2-----3-0---1-------------1-0-------------0-(2)-| 
D|-2-2222222222222---------2-1-11111111111-1-0-00000000000-0-(2)-| 
     .............             ...........     ........... 

E|----------------------------------------------------------------| 
B|----------------------------------------------------------------| 
G|-----------------5-----3b4-r3p0---------------------------------| 
D|-2-----------------4------------1-----------1-0-----------0-(2)-| 
A|-2-------------2-----2----------1-----------1-0-----------0-(2)-| 
D|-2-2222222222222----------------1-111111111-1-0-000000000-0-(2)-| 
     .............                  .........     ......... 

REPEAT SECTION 2 

REPEAT SECTION 1 x2 

REPEAT SECTION 2 x2, but skip the open power chord on last repeat 

SECTION 3 
Both Guitars 
E|-----------------------------------------------------0-------0-----| 
B|-----------------------------------------------------0-------0-----| 
G|--------------------5--------------------------------0-------0-----| 
D|-2--2-2--1--0---------4---2-3-3-0-2--2-2--1--0-------0-------0-----| 
A|-2--2-2--1--0-0-0-0-----2-2-3-3-0-2--2-2--1--0-0-0-0---0-0-0---0-0-| 
D|-2--2-2--1--0-0-0-0-------2-3-3-0-2--2-2--1--0-0-0-0---0-0-0---0-0-| 
                . . .                            . . .   . . .   . . 

E|-----------------------------------------| 
B|---5-6-----------------------------------| 
G|-7-----7---------------------------------| 
D|---------6-6-6-5-5-5-3-3-3-5-5-6-6-5-3-0-| 
A|---------6-6-6-5-5-5-3-3-3-5-5-6-6-5-3-0-| 
D|---------6-6-6-5-5-5-3-3-3-5-5-6-6-5-3-0-| 

REPEAT SECTION 3 

OUTRO 
Guitar 1 
E|--------------0---| 
B|--------------0---| 
G|--------------4~--| 
D|-2--2-2--1--0-----| 
A|-2--2-2--1--0-----| 
D|-2--2-2--1--0-----| 
|| 
Guitar 2 
E|------------------| 
B|--------------0---| 
G|-------------/4~--| 
D|-2--2-2--1--0-----| 
A|-2--2-2--1--0-----| 
D|-2--2-2--1--0-----| 

Not a ton of parts, so focus on the song structure. Pretty 
fun little song. Not completely sure about the last chord, 
or the weird dissonant one right at the beginning, but the rest 
should be pretty good, I think. 
Please rate & comment. 
Thanks, 
millarso 

************************************ 

| /   slide up 
| \   slide down 
| h   hammer-on 
| p   pull-off 
| ~   vibrato 
| +   harmonic 
| x   Mute note 
| b   Bend 
| pb  Pre-bend 
| br  Bend release 
| pbr Pre-bend release 
| brb Bend release bend 

************************************ 
		  

Full key step upFull key step up
Half key step upHalf key step up
Half key step downHalf key step down
Full key step downFull key step down
hide glossary

See also:

tabs Jack Johnson - Good People tabs Rage Against The Machine - Killing In The Name (ver. 2) tabs Blue Oyster Cult - Dont Fear The Reaper tabs R.E.M. - Losing my religion tabs Smashing Pumpkins - Today tabs Foo Fighters - Learn to Fly (acoustic version)
e-chords

Other versions:

tabs Every Time I Die - All Structures Are Unstable
auto scroll beats size up size down change color hide chords drawings
tab show chords e-chords YouTube Clip e-chords hide all tabs e-chords go to top tab

share