Evanescence

home > Evanescence

Your star Tab

Evanescence

Difficulty: nolevelnolevel

by europeu

tuner correct add songbook print version text version save to e-mail
chordsukulelecavacokeyboardtabbassdrumsharmonicsflute Guitar Pro
chords

Your star

Year: 2006 - Album: Open Door

  		. is Palm Mute 
{} is harmonic  
 
First Riff: 
 
e-------------| 
B-------------| 
G-------------| 
D-0---0-0-0-0-| 
A-0---0-0-0-0-| 
D-0---0-0-0-0-| 
PM.   . . . . 
 
 
Second Riff: 
 
e-------------|-------------| 
B-------------|-------------| 
G-------------|-------------| 
D-0{5}0-0-0-0-|-0---0-0-0-0-| 
A-0---0-0-0-0-|-0{5}0-0-0-0-| 
D-0---0-0-0-0-|-0---0-0-0-0-| 
PM.   . . . .   .   . . . .  
 
 
Main Riff (This riff starts at 2:54 into the song, and pretty much goes on 
until the song ends): 
e----------------|----------------|-----------------|----------------| 
B----------------|----------------|-----------------|----------------| 
G----------------|----------------|-----------------|----------------| 
D----------------|----------------|-----------------|----------------| 
A-5-----5----5---|-8----6----5----|-3-----3-----3---|-6----5----3----| 
D---5-8--5-8---5-|----------------|---4-7---4-7---4-|----------------| 
 

	  

Search Paypal
auto scroll beats size up size down change color hide chords drawings
tab show chords e-chords YouTube Clip e-chords hide all tabs e-chords go to top tab