Evanescence

home > Evanescence

Tourniquet Tab

Evanescence

Difficulty: ExpertExpert

by ssmarculinossbb

tuner correct add songbook print version text version save to e-mail
chordsukulelecavacokeyboardtabbassdrumsharmonicsflute Guitar Pro
chords

Tourniquet

Year: 2003 - Album: Anywhere But Home

  		Com duas guitarras a introdução fica melhor 
Intro:  
   E5 
e|---------------------------------------------------| 
B|---------------------------------------------------| 
G|------0----------------------0---------------------| 
D|--22-2--22--2-4--0-------22-2---22--2-4--0---------| 
A|--22----22---------------22-----22-----------------| 
E|--00----00---------------00-----00-----------------| 
 
    G C5                  A D5 
e|--------------------------------------------------|| 
B|--------------------------------------------------|| 
G|------0-------------------------------------------|| 
D|--22-2---22--2-4--0------4--7--5-4--7-5--4h5p4----|| 
A|--33-----33--------------5---------------------5--|| 
E|--33-----33--------------5------------------------|| 
_______________________________________________________________________ 
Riff 1 
   E5      E5       G C5    A D5      
e|----------------------------------------(0)-------|| 
B|------------------------------------(4)-----------|| 
G|--------------------------------------(1)---------|| 
D|--22x2--2-22x2--2-22x2--2-44x4--4-----------------|| 
A|--22x2--2-22x2--2-33x3--3-55x5--5-----------------|| 
E|--00x0--0-00x0--0-33x3--3-55x5--5-----------------|| 
_______________________________________________________________________ 
Riff 2 
   E5 
e|----------------------|| 
B|------------------5^--|| 
G|----------------------|| 
D|----------------------|| 
A|--22-222-22-2-222-----|| 
E|--00-000-00-0-000-----|| 
_______________________________________________________________________ 
 
Riff1 
 
E5                   E5 
I tried to kill the pain 
G C5            A D5   
but only brought more 
E5       E5 
i lay dying 
   G C5                          A D5          
and i'm pouring crimson regret and betrayal 
E5       E5      G C5           A D5 
I'm dying praying bleeding and screaming 
E5   E5       G C5  
am i too lost to be saved 
A D5        G 
am i too lost? 
 
Intro 
 
E5         E5 
my God my tourniquet 
  G C5       A D5             
return to me salvation 
E5         E5 
my God my tourniquet 
  G C5       A D5       
return to me salvation 
Riff 1 
E5             E5   
do you remember me 
G C5       A D5 
lost for so long 
 E5               E5 
will you be on the other side 
 G C5            A D5   
or will you forget me 
E5        E5     G C5          A D5 
i'm dying praying bleeding and screaming 
E5   E5       5/C5 
am i too lost to be saved 
   A D5        
am i too lost? 
 
Intro 
 
E5         E5 
my God my tourniquet 
  G C5       A D5     
return to me salvation 
E5         E5 
my God my tourniquet 
  G C5       A D5      
return to me salvation 
 
Riff 2 
 
Intro 
 
E5         E5 
my God my tourniquet 
  G C5       A D5     
return to me salvation 
E5         E5 
my God my tourniquet 
  G C5       A D5      
return to me salvation 
E5             E5 
my wounds cry for the grave 
  G C5          A D5            
my soul cries for deliverance 
E5           E5   
will i be denied Christ 
G C5      
tourniquet 
A D5 
my suicide 
 
e|--------5~--|--------------|| 
B|--8~-7~-----|--8~--7-------|| 
G|------------|--------7-----|| 
D|------------|----------7~--|| 
A|------------|--------------|| 
E|------------|--------------|| 
 
                             e finalmente:    FIM  
_______________________________________________________ 

	  

Full key step upFull key step up
Half key step upHalf key step up
Half key step downHalf key step down
Full key step downFull key step down
Search Paypal
auto scroll beats size up size down change color hide chords drawings
tab show chords e-chords YouTube Clip e-chords hide all tabs e-chords go to top tab