Evanescence

home > Evanescence

The Other Side Tab

Evanescence

Difficulty: IntermediateIntermediate

by GustAlpha1

tuner correct add songbook print version text version save to e-mail
chordsukulelecavacokeyboardtabbassdrumsharmonicsflute Guitar Pro
chords

The Other Side

  		Album: Evanescence 

Tuning: (Drop  A# )  A#   F   A#   D#   G   C  

Intro 
C |------------------------------------------------------------------| 
G |------------------------------------------------------------------| 
 D#|------------------------------------------------------------------|  
 A#|-----------------------------0------------------------------------|  
F |-------2-------2---------2p0---0--------2-------2-----------------| 
 A#|-2-2-2-2-----2-2-----2-2-2p0-----2222-2-2-----2-2-----------------|  
    . . .       .       . .         .... .       . 

C |------------------------------------------------------------------| 
G |------------------------------------------------------------5*----| 
 D#|------------------------------------------------------------5*-5*-|  
 A#|-----------------------------0---------------------------------5*-|  
F |-------2-------2---------2p0---0--------2-------2-----------------| 
 A#|-2-2-2-2-----2-2-----2-2-2p0-----2222-2-2-----2-2-----------------|  
    . . .       .       . .         .... .       . 


Riff 
C |------------------------------------------------------------------| 
G |------------------------------------------------------------------| 
 D#|------------------------------------------------------------------|  
 A#|-----------------------------0------------------------------------|  
F |-------2-------2---------2p0---0--------2-------2-----------------| 
 A#|-2-2-2-2-----2-2-----2-2-2p0-----2222-2-2-----2-2-----------------|  
    . . .       .       . .         .... .       . 

C |-----------------------------------------------------------------| 
G |-----------------------------------------------------------------| 
 D#|-----------------------------------------------------------------|  
 A#|-----------------------------0---5-------0-----2---------2p0-----|  
F |-------2-------2---------2p0---0-5-------0-----2---------2p0-----| 
 A#|-2-2-2-2-----2-2-----2-2-2p0-----5-------0-----2---------2p0-0---|  
    . . .       .       . .          

C |------------------------------------------------------------------| 
G |------------------------------------------------------------------| 
 D#|------------------------------------------------------------------|  
 A#|-----------------------------0------------------------------------|  
F |-------2-------2---------2p0---0--------2-------2-----------------| 
 A#|-2-2-2-2-----2-2-----2-2-2p0-----2222-2-2-----2-2-----------------|  
    . . .       .       . .         .... .       . 

C |-----------------------------------------------| 
G |-----------------------------------------------| 
 D#|-----------------------------------------------|  
 A#|-----------------------------0---5-------0-----|  
F |-------2-------2---------2p0---0-5-------0-----| 
 A#|-2-2-2-2-----2-2-----2-2-2p0-----5-------0-----|  
    . . .       .       . .          


Pre-Refrão 
C |-------------------------------------------------------------| 
G |-------------------------------------------------------------| 
 D#|-5-5-5-------------------------5-5-5-------------------------|  
 A#|-5-5-5---5-----2-----2---2-2p0-5-5-5---5-----2-----2---2-2p0-|  
F |-3-3-3---5-----2-----2---2-2p0-3-3-3---5-----2-----2---2-2p0-| 
 A#|---------5---2-2---2-2---2-2p0---------5---2-2---2-2---2-2p0-|  
                .     .                       .     . 

C |----------------------------------------------------------------| 
G |----------------------------------------------------------------| 
 D#|-5-5-5-------------------------5-5-5-5-5-5-5-5-5-/7-7-7-7-7-7-7-|  
 A#|-5-5-5---5-----2-----2---2-2p0-5-5-5-5-5-5-5-5-5-/7-7-7-7-7-7-7-|  
F |-3-3-3---5-----2-----2---2-2p0-3-3-3-3-3-3-3-3-3-/5-5-5-5-5-5-5-| 
 A#|---------5---2-2---2-2---2-2p0----------------------------------|  
                .     . 

Refrão 
C |-----------------------------------------------------------------| 
G |-----------------------------------------------------------------| 
 D#|-----------------5-----5-----5---2-----2-----2---2-----2-2---2---|  
 A#|-2-----2-----2---5-----5-----5---2-----2-----2---2-----2-2---2---|  
F |-2-----2-----2---3---3-3-----3---4---4-4-----4---4---4-4-4h5-5---| 
 A#|-2---2-2-----2---------------------------------------------------|  
        .               .               .               . 

C |--------------------------------------------------------------------| 
G |--------------------------------------------------------------------| 
 D#|-----------------5-----5-----5---2-----2----------------------------|  
 A#|-2-----2-----2---5-----5-----5---2-----2----------5--------4--------|  
F |-2-----2-----2---3---3-3-----3---0---0-0-----0000-5--------4--------| 
 A#|-2---2-2-----2------------------------------------5---5555-4---4444-|  
        .               .               .       ....     ....     .... 

C |-----------------------------------------------------------------| 
G |-----------------------------------------------------------------| 
 D#|-----------------5-----5-----5---2-----2-----2---2-----2-2---2---|  
 A#|-2-----2-----2---5-----5-----5---2-----2-----2---2-----2-2---2---|  
F |-2-----2-----2---3---3-3-----3---4---4-4-----4---4---4-4-4h5-5---| 
 A#|-2---2-2-----2---------------------------------------------------|  
        .               .               .               . 

C |---------------------------------| 
G |---------------------------------| 
 D#|-5-5-5-5-5-5-5-5-----------------|  
 A#|-5-5-5-5-5-5-5-5-5-5-5-5-4-4-4-4-|  
 F  |-3-3-3-3-3-3-3-3-5-5-5-5-4-4-4-4-| 
 A#|-----------------5-5-5-5-4-4-4-4-|  


Notas de transição 
C |-----------------------------------------------------------------| 
G |-----------------------------------------------------------------| 
 D#|-----------------------------------------------------------------|  
 A#|---------------------------------5-------0-----2---------2p0-----|  
F |---------------------------------5-------0-----2---------2p0-----| 
 A#|-5-2-0-2---2-0-2---2-2-0-2-0-5---5-------0-----2---------2p0-0---|  


Riff 
Pre-Refrão 
Refrão 


Ponte 
C |-----------------------------------| 
G |-----------------------------------| 
 D#|-----------------------------------|  
 A#|-----------------------------------|  
F |-----------------------------------| 
 A#|-5-2-0-2---------------------5/12\-|  
    . . . . 

C |-----------------------------------------------------------------| 
G |-----------------------------------------------------------------| 
 D#|-----------------------------------------------------------------|  
 A#|-----------------------------------------------------------------|  
F |-----------------------------------------------------------------| 
 A#|-5-2-0-2---2-0-2---2-2-0-2-0-5---5-2-0-2---2-0-2---2-2-0-2-0-5---|  

C |-----------------------------------------------------------------| 
G |-----------------------------------------------------------------| 
 D#|-----------------------------------------------------------------|  
 A#|-----------------------------------------------------------------|  
F |-----------------------------------------------------------------| 
 A#|-5-2-0-2---2-0-2---2-2-0-2-0-5---5-2-0-2---2-0-2---2-2-0-2-0-5---|  

C |-----------------------------------------------------------------| 
G |-----------------------------------------------------------------| 
 D#|-5-5-5-5-5-5-5-5-5-5-5-5-5-5-5-5-5-5-5-5-5-5-5-5-5-5-5-5-5-5-5-5-|  
 A#|-5-5-5-5-5-5-5-5-5-5-5-5-5-5-5-5-5-5-5-5-5-5-5-5-5-5-5-5-5-5-5-5-|  
 F  |-3-3-3-3-3-3-3-3-3-3-3-3-3-3-3-3-3-3-3-3-3-3-3-3-3-3-3-3-3-3-3-3-| 
 A#|-----------------------------------------------------------------|  

C |-----------------------------------------------------------------| 
G |-----------------------------------------------------------------| 
 D#|-----------------------------------------------------------------|  
 A#|-----------------------------------------------------------------|  
F |-----------------------------------------------------------------| 
 A#|-5-2-0-2---2-0-2---2-2-0-2-0-5---5-2-0-2---2-0-2---2-2-0-2-0-5---|  

C |-----------------------------------------------------------------| 
G |-----------------------------------------------------------------| 
 D#|-7-7-7-7-7-7-7-7-7-7-7-7-7-7-7-7-7-7-7-7-7-7-7-7-7-7-7-7-7-7-7-7-|  
 A#|-7-7-7-7-7-7-7-7-7-7-7-7-7-7-7-7-7-7-7-7-7-7-7-7-7-7-7-7-7-7-7-7-|  
 F  |-5-5-5-5-5-5-5-5-5-5-5-5-5-5-5-5-5-5-5-5-5-5-5-5-5-5-5-5-5-5-5-5-| 
 A#|-----------------------------------------------------------------|  

C |-------------------------------------------------------------------| 
G |-------------------------------------------------------------------| 
 D#|-------------------------------------------------------------------|  
 A#|-------------------------------------------------------------------|  
F |-------------------------------------------------------------------| 
 A#|-5-2-0-2---2-0-2---2-2-0-0000-5---5-2-0-2---2-0-2-0--0--0--0--0--0-|  
                            ....                     .  .  .  .  .  . 

C |--------------------------------------------------------------------| 
G |--------------------------------------------------------------------| 
 D#|--------------------------------------------------------------------|  
 A#|--------------------------------------------------5--------4--------|  
F |--------------------------------------------------5--------4--------| 
 A#|-5-2-0-2---2-0-2---2-2-0-0000-5---5-2-0-2---2-0-2-5---5555-4---4444-|  
                            ....                         ....     .... 

C |--------------------------------------------------------------------| 
G |--------------------------------------------------------------------| 
 D#|--------------------------------------------------------------------|  
 A#|-2------------------------------------------------------------------|  
F |-2------------------------------------------------------------------| 
 A#|-2------------------------------------------------------------------|  


Refrão 


Riff final 
C |------------------------------------------------------------------| 
G |------------------------------------------------------------------| 
 D#|------------------------------------------------------------------|  
 A#|-----------------------------0------------------------------------|  
F |-------2-------2---------2p0---0--------2-------2-----------------| 
 A#|-2-2-2-2-----2-2-----2-2-2p0-----2222-2-2-----2-2-----------------|  
    . . .       .       . .         .... .       . 
 
	  

Search Paypal
auto scroll beats size up size down change color hide chords drawings
tab show chords e-chords YouTube Clip e-chords hide all tabs e-chords go to top tab