Evanescence

home > Evanescence

The last day Tab

Evanescence

Difficulty: IntermediateIntermediate

by Glaudemir

tuner correct add songbook print version text version save to e-mail
chordsukulelecavacokeyboardtabbassdrumsharmonicsflute Guitar Pro
chords

The last day

  		Evanescence - The last day 
 
Verse 1 
 
E---------------------------------------------------------------------------------------------| 
A---------------------------------------------------------------------------------------------| 
D-------2----2----------0----4-------4-------4----5---------------5--4--------------------0---| 
G---------0----0----0--------------0-------0------------0------4-4---------0-----4-4----------| 
B-----------0----0--------------3-------3-------3----0-------0----------3-----3---------------| 
e---------------------------------------------------------------------------------------------| 
 REPEAT 8x 
 
Pre-Chorus 
 
E----------------------------------------------| 
A----------------------------------------------| 
D---2-------2--------2---0--------0---------0--| 
G--------------0--0---------2---------0=2-0----| 
B-------0----------------------3---------------| 
e----------------------------------------------| 
 
Chorus 
 
E---0--0-0-0--0-0--0-0--0-0----0-0---0-0---| 
A---3--3-3-3--3-3--3-3--3-3----2-2---0-0---| 
D---2--2-2-2--2-2--2-2--2-2----2-2---0-0---| 
G---0--0-0-0--0-0--0-0--0-0----0-0---2-2---| 
B---1--3-3-3--0-0--1-1--3-3----0-0---3-3---| 
e---0--0-0-0--0-0--0-0--0-0----0-0---0-0---| 
 
Repeat 4x 
 
 
Verse 2 
 
E-----------------------------------------------------------| 
A-----------------------------------------------------------| 
D---2-------------------0-----------------------------------| 
G-----0---0-------0--------2-----2--------2-----------------| 
B-------0------0-----0--------3--------3------0-1-3-0-1-3---| 
e------------0----------------------0-----------------------| 
 
Repeat 4x 
 
Chorus 2 
 
E---0-0---0-0---0--0-0-0---0-0---0-0---0-0--| 
A---2-2---0-0---3--3-3-3---3-3---3-3---3-3--| 
D---2-2---0-0---2--2-2-2---2-2---2-2---2-2--| 
G---0-0---2-2---0--0-0-0---0-0---0-0---0-0--| 
B---0-0---3-3---1--3-3-3---0-0---1-1---3-3--| 
e---0-0---0-0---0--0-0-0---0-0---0-0---0-0--| 
 
Repeat several times 
 
I've spent so much time throwing rocks at your window  
That I never even knocked on the front door  
 
I walk by statues never even made one chip  
But if I could leave a mark on the monument of the heart  
I just might lay myself down for a little more than I had the last day  
 
The last day, the last day, the last day  
 
Wait a time to spare these lies we tell ourselves  
These days have come and gone  
But this time is sweeter than honey 
 

	  

Search Paypal
auto scroll beats size up size down change color hide chords drawings
tab show chords e-chords YouTube Clip e-chords hide all tabs e-chords go to top tab