Evanescence

home > Evanescence

Solitude Tab

Evanescence

Difficulty: BeginnerBeginner

by %5FMarocas%5F

tuner correct add songbook print version text version save to e-mail
chordsukulelecavacokeyboardtabbassdrumsharmonicsflute Guitar Pro
chords

Solitude

  		Repete isso várias vezes 
 
|--------------------------0---------------| 
|-------------------0----------------------| 
|----0---0-----0--------0----0-------------| 
|---0---0-----0----0---0-------2-----------| 
|--3---2---2-3----3---2----3---------------| 
|------------------------------------------| 
 
Aí entra a voz (Várias vezes repetindo) 
 
|-----0--------------------0---------------| 
|-------0----0-----------0-----------------| 
|---------0-------0----0-------------------| 
|--------------0----0----------------------| 
|------------------------------------------| 
|------------------------------------------| 
 
|------------------------------------------| 
|------------------------------------------| 
|---0---------0------0--------0------------| 
|-----0----0------0--------0---------------| 
|-------3-------2------2-3-----------------| 
|------------------------------------------| 
 
Refrão (Várias vezes) 
 
|-----------------------------------------| 
|----------1------------0-----------------| 
|--------0---0--------0---0---------------| 
|------0-------0----0-------0-------------| 
|----3-----------3-2----------------------| 
|-----------------------------------------| 
 
|-----------------------------------------| 
|----------1-0---0------------------------| 
|--------0-----0--------------------------| 
|------0----------------------------------| 
|--2-3------------------------------------| 
|-----------------------------------------| 
 
E volta pra voz 
 
FIM 
	  

Search Paypal
auto scroll beats size up size down change color hide chords drawings
tab show chords e-chords YouTube Clip e-chords hide all tabs e-chords go to top tab