Evanescence

home > Evanescence

Say You Will Tab

Evanescence

Difficulty: IntermediateIntermediate

by deivcavalcanti

tuner correct add songbook print version text version save to e-mail
chordsukulelecavacokeyboardtabbassdrumsharmonicsflute Guitar Pro
chords

Say You Will

  		 

Intro/verse1: (2x)                                                              

e|---------------------------------------------------------------------------| 
B|---------------------------------------------------------------------------| 
G|---------------------------------------------------------------------------| 
D|------5h7-------5h7------5h7-------5h7-------------------------------------|    (x3) 
A|-00000-----00000----00000----00000-----------3h5------3h5------3h5-----3h5-| 
D|---------------------------------------000000----00000----00000---00000----|    

e|---------------------------------------------------------------------------| 
B|---------------------------------------------------------------------------| 
G|---------------------------------------------------------------------------| 
D|------5h7-----5h7-----5h7-----5h7--------------------5--5---(7)------------|  
A|-00000---00000---00000---00000---------3h5-----3h5---5--5---(7)------------| 
D|----------------------------------00000---00000------5--5---(7)------------|  

Pre-chorus: 

e|---------------------------------------------------------------------------| 
B|---------------------------------------------------------------------------| 
G|---------------------------------------------------------------------------| 
D|---------------------------------------------------------------------------| 
A|--3333333333333333---777777777777--5555--3333333333333--22222222222--------| 
D|--3333333333333333---777777777777--5555--3333333333333--22222222222--------| 
    ................   ............  ....  .............  ....... 

Chorus: (2x) 
                                            2nd time through instead of 5's 
e|----------------------------------------|----------------------------------| 
B|--------------------------------------*-|----------------------------------| 
G|-------------------------7--------------|----------------------------------| 
D|-7/---7-7--5/---5-5--00--7--3333--5555--|---3333--2222---------------------| 
A|-7/---7-7--5/---5-5--00--5--3333--5555*-|---3333--2222---------------------| 
D|-7/---7-7--5/---5-5--00-----3333--5555--|---3333--2222---------------------| 

verse 2:                                                               

e|---------------------------------------------------------------------------| 
B|---------------------------------------------------------------------------| 
G|---------------------------------------------------------------------------| 
D|------5h7-------5h7------5h7-------5h7-------------------------------------|    (x3) 
A|-00000-----00000----00000----00000-----------3h5------3h5------3h5-----3h5-| 
D|---------------------------------------000000----00000----00000---00000----|    

e|---------------------------------------------------------------------------| 
B|---------------------------------------------------------------------------| 
G|---------------------------------------------------------------------------| 
D|------5h7-----5h7-----5h7-----5h7--------------------5--5---(7)------------|  
A|-00000---00000---00000---00000---------3h5-----3h5---5--5---(7)------------| 
D|----------------------------------00000---00000------5--5---(7)------------|  

Pre-chorus: 

e|---------------------------------------------------------------------------| 
B|---------------------------------------------------------------------------| 
G|---------------------------------------------------------------------------| 
D|---------------------------------------------------------------------------| 
A|--3333333333333333---777777777777--5555--3333333333333--22222222222--------| 
D|--3333333333333333---777777777777--5555--3333333333333--22222222222--------| 
     

Chorus: (4x) 
                                            2nd time through instead of 5's 
e|----------------------------------------|----------------------------------| 
B|----------------------------------------|----------------------------------| 
G|-------------------------7------------*-|----------------------------------| 
D|-7/---7-7--5/---5-5--00--7--3333--5555--|---3333--2222---------------------| 
A|-7/---7-7--5/---5-5--00--5--3333--5555*-|---3333--2222---------------------| 
D|-7/---7-7--5/---5-5--00-----3333--5555--|---3333--2222---------------------| 

A little piano then 
  
Bridge: 

e|-----------------------------------------------------|---------------------| 
B|----------------------------------------------------*|---------------------| 
G|-----------------------------------------------------|---------------------| 
D|----5h7--5h7--5h7--5h7--5h7--5h7--5h7--5h7-333--222--|-333--22222222-------| 
A|--00---00---00---00---00---00---00---00----333--222-*|-333--22222222-------| 
D|-------------------------------------------333--222--|-333--22222222-------| 

e|---------------------------------------------------------------------------| 
B|---------------------------------------------------------------------------| 
G|---------------------------------------------------------------------------| 
D|--777/---777/--777/--777---------------------------------------------------| 
A|--777/---777/--777/--777---------------------------------------------------| 
D|--777/---777/--777/--777---------------------------------------------------| 

Chorus: (4x) 
                                            2nd time through instead of 5's 
e|----------------------------------------|----------------------------------| 
B|----------------------------------------|----------------------------------| 
G|-------------------------7--------------|----------------------------------| 
D|-7/---7-7--5/---5-5--00--7--3333--5555--|---3333--2222---------------------| 
A|-7/---7-7--5/---5-5--00--5--3333--5555--|---3333--2222---------------------| 
D|-7/---7-7--5/---5-5--00-----3333--5555--|---3333--2222---------------------| 
 
	  

Search Paypal
auto scroll beats size up size down change color hide chords drawings
tab show chords e-chords YouTube Clip e-chords hide all tabs e-chords go to top tab