Evanescence

home > Evanescence

October Tab

Evanescence

Difficulty: ExpertExpert

tuner correct add songbook print version text version save to e-mail
chordsukulelecavacokeyboardtabbassdrumsharmonicsflute Guitar Pro
chords

October

  		Obs: Afinar suas cordas em "D, A, D, G, C, E"

Intro: (F F9/E Dm Bb C C7)

Acordes:

   F  F9/E  Dm  Bb  C  C7
E--0----0----0---1--0---0----
C--0----0----2---0--0---0----
G--2----0----2---3--0---3----
D--3----3----3---0--2---2----
A--3----3----0---1--3---3----
D--3----2----0---0--0---0----


Dedilhado: a maior parte da música
E--------------------------------------------------------------------
C--------------------------------------------------------------------
G-----0-----------0-------------------0-----------0-----------0h2----
D-----------3-----------3-------------------3-----------3------------
A---3-----3-----3-----3-------3-----3-----3-----3-----3-----3--------
D-3-----3-----3-----3-----3h5---3-2-----2-----2-----2-----2----------


E--------------------------------------------------------------------
C--------------------------------------------------------------------
G-----------0-----2-----0--------------------------------------------
D-----3-----------------------3-----------0-----3-----2--------------
A---0-----0-----0-----0-----0-------3-----------------------3--------
D-0-----0-----0-----0-----0-----1h3---1h3---1h3---3-1---3-1----------


(F F9/E Dm Bb)
I can't run anymore, 
I fall before you, 
Here I am, 
I have nothing left, 
Though I've tried to forget, 
You're all that I am, 
Take me home, 
I'm through fighting it, 
Broken, 
Lifeless, 
I give up, 
You're my only strength, 
Without you, 
I can't go on, 
Anymore, 
Ever again. 

Passagem:
E-------------------------------------------------------------- |
C-------------------------------------------------------------- | 
G------5-----5-----5-----5-----5-------5-----5-----5-----5----- |2x 
D----5-----5-----5-----5-----5-------5-----5-----5-----5------- | 
A-------------------------------------------------------------- |
D--3-----2-----0-----0-----0-----7-8-----5-----7-----8-----7-5- |


refrão:
------

F  F9/E Dm 
My only hope, 
(All the times I've tried) 
        Bb  
My only peace, 
(To walk away from you) 
        C  
My only joy,
   C7       F  
My only strength, 
(I fall into your abounding grace) 
   F9/E  Dm
My only power, 
         Bb
My only life, 
(And love is where I am) 
     C   F F9/E  
My only love. 


(F F9/E Dm Bb)
I can't run anymore, 
I give myself to you, 
I'm sorry, 
I'm sorry, 
In all my bitterness, 
I ignored, 
All that's real and true, 
All I need is you, 
When night falls on me, 
I'll not close my eyes, 
I'm too alive, 
And you're too strong, 
I can't lie anymore, 
I fall down before you, 
I'm sorry, 
I'm sorry. 

Passagem:
E-------------------------------------------------------------- |
C-------------------------------------------------------------- | 
G------5-----5-----5-----5-----5-------5-----5-----5-----5----- |2x 
D----5-----5-----5-----5-----5-------5-----5-----5-----5------- | 
A-------------------------------------------------------------- |
D--3-----2-----0-----0-----0-----7-8-----5-----7-----8-----7-5- |

Repete Refrão

(Dm  Bb)
Constantly ignoring, 
The pain consuming me, 
But this time it's cut too deep, 
I'll never stray again. 

Repete Refrão

_______________________________________________________
Contribuição: Nelinho Filho([email protected])
	  

Full key step upFull key step up
Half key step upHalf key step up
Half key step downHalf key step down
Full key step downFull key step down
Search Paypal
auto scroll beats size up size down change color hide chords drawings
tab show chords e-chords YouTube Clip e-chords hide all tabs e-chords go to top tab