Evanescence

home > Evanescence

Never Go Back Tab

Evanescence

Difficulty: ExpertExpert

by educastilho

tuner correct add songbook print version text version save to e-mail
chordsukulelecavacokeyboardtabbassdrumsharmonicsflute Guitar Pro
chords

Never Go Back

  		


Intro
 
D|-----------------------------------------------------------------| 
A|-----------------------------------------------------------------| 
F|-----------------------------------------------------------------| 
C|-----------------------------------------------------------------| 
G|-----5p3---5-----5p3---5-----3h5-----8p7---7-----5p3---3-----3h5-| 
C|-0-0-----0---0-0-----0---0-0-----0-0-----0---0-0-----0---0-0-----| 
   . .     .   . .     .   . .     . .     .   . .     .   . . 


Verse 
(play the first six notes of the intro riff and then rest) 


Pre-chorus 
D|-----------------------------------------------------------------| 
A|-----------------------------------------------------------------| 
F|-----------------------------------------------------------------| 
C|-8-8-8-8-8-8-8-8-8-\-0-0-0-0-0-0-8-8-8-8-8-8-8-8-8-\-0-0-0-0-0-0-| 
G|-8-8-8-8-8-8-8-8-8-\-0-0-0-0-0-0-8-8-8-8-8-8-8-8-8-\-0-0-0-0-0-0-| 
C|-8-8-8-8-8-8-8-8-8-\-0-0-0-0-0-0-8-8-8-8-8-8-8-8-8-\-0-0-0-0-0-0-| 

D|-------------------------------------------------------------------------| 
A|-------------------------------------------------------------------------| 
F|-------------------------------------------------------------------------| 
C|-8-8-8-8-8-8-8-8-8-\-0-0-0-0-0-0-8-8-8-8-8-8-8-8-10-10-10-10-11-11-11-11-| 
G|-8-8-8-8-8-8-8-8-8-\-0-0-0-0-0-0-8-8-8-8-8-8-8-8-10-10-10-10-11-11-11-11-| 
C|-8-8-8-8-8-8-8-8-8-\-0-0-0-0-0-0-8-8-8-8-8-8-8-8-10-10-10-10-11-11-11-11-| 


Chorus 
D|-------------------------------------------------------------------------| 
A|-------------------------------------------------------------------------| 
F|-7---7---7---7---7---7---7---7-------------------------------------------| 
C|-7---7---7---7---7---7---7---7---11---11---11---11---11---11---11---11---| 
G|-5---5---5---5---5---5---5---5---12---12---12---12---12---12---12---12---| 
C|-0---0---0---0---0---0---0---0---11---11---11---11---11---11---11---11---| 

D|-----------------------------------------------------------------| 
A|-----------------------------------------------------------------| 
F|-----------------------------------------------------------------| 
C|-8---8---8---8---8---8---8---8---7---7---7---7---7---7---7---7---| 
G|-8---8---8---8---8---8---8---8---7---7---7---7---7---7---7---7---| 
C|-8---8---8---8---8---8---8---8---7---7---7---7---7---7---7---7---| 

D|-------------------------------------------------------------------------| 
A|-------------------------------------------------------------------------| 
F|-7---7---7---7---7---7---7---7-------------------------------------------| 
C|-7---7---7---7---7---7---7---7---11---11---11---11---11---11---11---11---| 
G|-5---5---5---5---5---5---5---5---12---12---12---12---12---12---12---12---| 
C|-0---0---0---0---0---0---0---0---11---11---11---11---11---11---11---11---| 

D|-----------------------------------------------------------------| 
A|-----------------------------------------------------------------| 
F|-----------------------------------------------------------------| 
C|-3---3---3---3---3---3---3---3---7---7---7---7---7---7---7---7---| 
G|-3---3---3---3---3---3---3---3---7---7---7---7---7---7---7---7---| 
C|-3---3---3---3---3---3---3---3---7---7---7---7---7---7---7---7---| 


Verse 
Pre-chorus 
Chorus 


Chorus extension 
D|-------------------------------------------------------------------------| 
A|-------------------------------------------------------------------------| 
F|-7---7---7---7---7---7---7---7-------------------------------------------| 
C|-7---7---7---7---7---7---7---7---11---11---11---11---11---11---11---11---| 
G|-5---5---5---5---5---5---5---5---12---12---12---12---12---12---12---12---| 
C|-0---0---0---0---0---0---0---0---11---11---11---11---11---11---11---11---| 

D|-----------------------------------------------------------------| 
A|-----------------------------------------------------------------| 
F|-----------------------------------------------------------------| 
C|-8---8---8---8---8---8---8---8---7---7---7---7---7---7---7---7---| 
G|-8---8---8---8---8---8---8---8---7---7---7---7---7---7---7---7---| 
C|-8---8---8---8---8---8---8---8---7---7---7---7---7---7---7---7---| 

D|-------------------------------------------------------------------------| 
A|-------------------------------------------------------------------------| 
F|-------------------------------------------------------------------------| 
C|-5---5---5---5---5---5---5---5---10---10---10---10---10---10---10---10---| 
G|-5---5---5---5---5---5---5---5---10---10---10---10---10---10---10---10---| 
C|-5---5---5---5---5---5---5---5---10---10---10---10---10---10---10---10---| 

D|-------------------------------------------------------------------| 
A|-3-----------------------------------------------------------------| 
F|-2-----------------------------------------------------------------| 
C|-0-----------------------------------------------------------------| 
G|-0-----------------------------------------------------------------| 
C|-0-----------------------------------------------------------------| 


Bridge
 
D|-------------------------------------------------------------------| 
A|-3-3-------------------------------3-3-----------------------------| 
F|-2-2-------------------------------2-2-----------------------------| 
C|-0-0-------------------------------0-0-----------------------------| 
G|-0-0-------------------------------0-0-----------------------------| 
C|-0-0-------------------------------0-0-----------------------------| 

D|---------------------------------| 
A|---------------------------------| 
F|---------------------------------| 
C|-5---------------8-------7-------| 
G|-5---------------8-------7-------| 
C|-5---------------8-------7-------| 

D|-------------------------------------------------------------------| 
A|-3---------------------------------3-3-----------------------------| 
F|-2---------------------------------2-2-----------------------------| 
C|-0---------------------------------0-0-----------------------------| 
G|-0---------------------------------0-0-----------------------------| 
C|-0---------------------------------0-0-----------------------------| 

D|---------------------------------| 
A|---------------------------------| 
F|---------------------------------| 
C|-5---------------8-------7-------| 
G|-5---------------8-------7-------| 
C|-5---------------8-------7-------| 

D|---------------------------------| 
A|-3-------------------------------| 
F|-2-------------------------------| 
C|-0-------------------------------| 
G|-0---------------0-0-0-0-0-0-0-0-| 
C|-0---------------0-0-0-0-0-0-0-0-| 
                   . . . . . . . . 

D|-------------------------------------------------------------------------------| 
A|-------------------------------------------------------------------------------| 
F|---------------------------------11-11-11-11-11-11-11-11-11-11-11-11-\-5-5-5-5-| 
C|-5-5-5-5-5-5-5-5-8-8-8-8-8-8-8-8-----------------------------------------------| 
G|-5-5-5-5-5-5-5-5-8-8-8-8-8-8-8-8--9--9--9--9--9--9--9--9--9--9--9--9-\-3-3-3-3-| 
C|-5-5-5-5-5-5-5-5-8-8-8-8-8-8-8-8-----------------------------------------------| 

D|-----------------------------------------------------------------| 
A|-----------------------------------------------------------------| 
F|-----------------------------------------------------------------| 
C|-5-5-5-5-5-5-5-5-8-8-8-8-8-8-8-8-0-0-0-0-0-0-0-0-0-0-0-0-0-0-0-0-| 
G|-5-5-5-5-5-5-5-5-8-8-8-8-8-8-8-8-0-0-0-0-0-0-0-0-0-0-0-0-0-0-0-0-| 
C|-5-5-5-5-5-5-5-5-8-8-8-8-8-8-8-8-0-0-0-0-0-0-0-0-0-0-0-0-0-0-0-0-| 

D|---------------------------------------------------------------------------------| 
A|---------------------------------------------------------------------------------| 
F|---------------------------------------------------------------------------------| 
C|-8-8-8-8-8-8-8-8-5-5-5-5-5-5-5-5-11-11-11-11-11-11-11-11-11-11-11-11-11-11-11-11-| 
G|-8-8-8-8-8-8-8-8-5-5-5-5-5-5-5-5-11-11-11-11-11-11-11-11-11-11-11-11-11-11-11-11-| 
C|-8-8-8-8-8-8-8-8-5-5-5-5-5-5-5-5-11-11-11-11-11-11-11-11-11-11-11-11-11-11-11-11-| 
                                    .  .  .  .  .  .  .  .  .  .  .  . 


Extended Chorus 


Ending 
D|-----------------------------------------------------------------| 
A|-------------------------------3-3-------------------------------| 
F|-------------------------------2-2-------------------------------| 
C|-5-5-5-5-5-5-5-5-8-8-8-8-7-7-7-0-0-------------------------------| 
G|-5-5-5-5-5-5-5-5-8-8-8-8-7-7-7-0-0-------------------------------| 
C|-5-5-5-5-5-5-5-5-8-8-8-8-7-7-7-0-0-------------------------------| 
 
	  

Search Paypal
auto scroll beats size up size down change color hide chords drawings
tab show chords e-chords YouTube Clip e-chords hide all tabs e-chords go to top tab