Evanescence

home > Evanescence

Lithium Tab

Evanescence

Difficulty: ExpertExpert

by Helena%5F2892

tuner correct add songbook print version text version save to e-mail
chordsukulelecavacokeyboardtabbassdrumsharmonicsflute Guitar Pro
chords

Lithium

Year: 2006 - Album: Open Door

  		INTRO  
*for intro- strum chords only once.  

"Lithium...don't want lock me up inside..."  
E|-------------------------------------------------|  
B|-------------------------------------------------|  
G|-4-2---------------------------------------------|  
D|-4-2---2---------------2-------------------------|  
A|-2-0---2---------------2-------------------------|  
E|-------0---------------0-------------------------|  
   
E|-------------------------------------------------|  
B|-------------------------------------------------|  
G|-4-2------------------------------------4--------|  
D|-4-2---2-----------2--------------------4--------|  
A|-2-0---2-----------2--------------------2--------|  
E|-------0-----------0-----------------------------|  
 "I want stay in love with my sorrow..."  


E|-------------------------------------------------|  
B|-------------------------------------------------|  
G|-2------------------------------4----------------|  
D|-2----2-------------------------4----------------|  
A|-0----2-------------------------2----------------|  
E|------0------------------------------------------|  
 "But God, I want let it go."  


_______________________________________________________  
                       
                   VERSE 1  
                       
E|--2------2------------------3-----3--------------|  
B|--3------3------------------0-----0--------------|  
G|--4------4------------------0-----0--------------|  
D|--4------4------------------0-----0--------------|  
A|--2------2------------------2-----2--------------|  
E|--2------2------------------3-----3--------------|  
  "Come to bed, don't make me sleep alone..."  

E|-3-----------------0--------------------2--------|  
B|-0-----------------2--------------------3--------|  
G|-0-----------------2--------------------4--------|  
D|-0-----------------2--------------------4--------|  
A|-2-----------------0--------------------2--------|  
E|-3-----------------0--------------------2--------|  
  "You couldn't hide the emptiness,so let it show.."  

E|--2----2------------3-----3----------------------|  
B|--3----3------------0-----0----------------------|  
G|--4----4------------0-----0----------------------|  
D|--4----4------------0-----0----------------------|  
A|--2----2------------2-----2----------------------|  
E|--2----2------------3-----3----------------------|  
  "Never wanted it to be so cold..."  

E|------3------------0-----------------------------|  
B|------0------------2-----------------------------|  
G|------0------------2-----------------------------|  
D|------0------------2-----------------------------|  
A|------2------------0-----------------------------|  
E|------3------------0-----------------------------|  
  "You just didn't drink enough to say you loved me.."    

_____________________________________________________  

                      PRE-Chorus  

(*strum once)  
E|-----------------------------------------------------|  
B|-----------------------------------------------------|  
G|-4-4-----4-------------------------------------------|  
D|-4-4-----4----5--5--5---2---2---2------4-----4----4--|  
A|-2-2-----2----5--5--5---2---2---2------4-----4----4--|  
E|-0-0-----0----3--3--3---0---0---0------2-----2----2--|  
  "I can't hold on to me,wonder what's wrong with me.."  

_____________________________________________________  

                      Chorus  

E|-------------------------------------------------|  
B|-------------------------------------------------|  
G|-4-2---------------------------------------------|  
D|-4-2---2---------------2-------------------------|  
A|-2-0---2---------------2-------------------------|  
E|-------0---------------0-------------------------|  
 "Lithium, dont want lock me up inside..."  


E|-------------------------------------------------|  
B|-------------------------------------------------|  
G|-4--20202----------------------------------------|  
D|-4--20202-2---------------2----------------------|  
A|-2--00000-2---------------2----------------------|  
E|----------0---------------0----------------------|  
      V^V^V  
  "Lithium don't want forget how it feels without.."  

E|--------------------------------------------------|  
B|--------------------------------------------------|  
G|-4--204----------------------------------4--------|  
D|-4--204-2-----------2--------------------4--------|  
A|-2--002-2-----------2--------------------2--------|  
E|--------0-----------0-----------------------------|  
      VVV   
  "Lithium.. I want stay in love with my sorrow.."  


E|-0-----------------------------------------------|  
B|-2-----------------------------------------------|  
G|-2-----------------------------------------------|  
D|-2----2------------------------------------------|  
A|-0----2------------------------------------------|  
E|------0------------------------------------------|  
 "Oh...."   


_____________________________________________________  

                    .#.VERSE 2.#.  


E|--------------------0------0---------2------2-----|  
B|--------------------2------2---------3------3-----|  
G|--------------------2------2---------4------4-----|  
D|-2------------------2------2---------4------4-----|  
A|-2------------------0------0---------2------2-----|  
E|-0------------------0------0---------2------2-----|  
  "Don't wanna let it- lay me down this time..."  

E|-3---------0------2----2--------------------------|  
B|-0---------2------3----3--------------------------|  
G|-0---------2------4----4--------------------------|  
D|-0---------2------4----4--------------------------|  
A|-2---------0------2----2--------------------------|  
E|-3---------0------2----2--------------------------|  
  "Drown my will to fly..."  

E|-3-----------0----------2-----------2-------------|  
B|-0-----------2----------3-----------3-------------|  
G|-0-----------2----------4-----------4-------------|  
D|-0-----------2----------4-----------4-------------|  
A|-2-----------0----------2-----------2-------------|  
E|-3-----------0----------2-----------2-------------|  
  "Here in the darkness, I know myself..."  

E|-3-----------0-------------------2--2---------3-0-|  
B|-0-----------2-------------------3--3---------0-2-|  
G|-0-----------2-------------------4--4---------0-2-|  
D|-0-----------2-------------------4--4---------0-2-|  
A|-2-----------0-------------------2--2---------2-0-|  
E|-3-----------0-------------------2--2---------3-0-|  
  "Can't break free until I let it go...let me go..."   


______________________________________________________  

                     VERSE   
                     
E|-2--------2--------------3----3--------------|  
B|-3--------3--------------0----0--------------|  
G|-4--------4--------------0----0--------------|  
D|-4--------4--------------0----0--------------|  
A|-2--------2--------------2----2--------------|  
E|-2--------2--------------3----3--------------|  
  "Darling, I forgive you after all..."  

E|-3-----------0-----------------2-------------|  
B|-0-----------2-----------------3-------------|  
G|-0-----------2-----------------4-------------|  
D|-0-----------2-----------------4-------------|  
A|-2-----------0-----------------2-------------|  
E|-3-----------0-----------------2-------------|  
  "Anything is better than to be alone..."  

E|-----2------2-------------3------3-----------|  
B|-----3------3-------------0------0-----------|  
G|-----4------4-------------0------0-----------|  
D|-----4------4-------------0------0-----------|  
A|-----2------2-------------2------2-----------|  
E|-----2------2-------------3------3-----------|  
  "And in the end, I guess I had to fall..."  

E|-3--------------0----------------------------|  
B|-0--------------2----------------------------|  
G|-0--------------2----------------------------|  
D|-0--------------2----------------------------|  
A|-2--------------0----------------------------|  
E|-3--------------0----------------------------|  
  "Always find my place among the ashes..."   

_____________________________________________________  

                   PRE-Chorus  

(*strum each chord once)  

E|---------------------------------------0-----0----0-|  
B|---------------------------------------2-----2----2-|  
G|-4-4-----4-----------------------------2-----2----2-|  
D|-4-4-----4----5--5--5---2---2---2------2-----2----2-|  
A|-2-2-----2----5--5--5---2---2---2------0-----0----0-|  
E|-0-0-----0----3--3--3---0---0---0------0-----0----0-|  
  "I can't hold on to me, wonder what's wrong with me.."  

_____________________________________________________  

                    Chorus  

E|-------------------------------------------------|  
B|-------------------------------------------------|  
G|-4-2---------------------------------------------|  
D|-4-2---2---------------2-------------------------|  
A|-2-0---2---------------2-------------------------|  
E|-------0---------------0-------------------------|  
 "Lithium, don't want lock me up inside..."  


E|-------------------------------------------------|  
B|-------------------------------------------------|  
G|-4--20202----------------------------------------|  
D|-4--20202-2---------------2----------------------|  
A|-2--00000-2---------------2----------------------|  
E|----------0---------------0----------------------|  
      V^V^V  
  "Lithium, don't want forget how it feels without.."  

E|--------------------------------------------------|  
B|--------------------------------------------------|  
G|-4--204-----------------------4-------------------|  
D|-4--204-2---2-----------------4-------------------|  
A|-2--002-2---2-----------------2-------------------|  
E|--------0---0-------------------------------------|  
      VVV   
  "Lithium, I want stay in love with you..."  


E|-0------------------------------------------------|  
B|-2------------------------------------------------|  
G|-2------------------------4-----------------------|  
D|-2----2--5---------2-2-2--4-----------------------|  
A|-0----2--5---------2-2-2--2-----------------------|  
E|------0--3---------0-0-0--------------------------|  
                     V V V  V  
 "Oh...... I'm gonna let it go."   




	  

Search Paypal
auto scroll beats size up size down change color hide chords drawings
tab show chords e-chords YouTube Clip e-chords hide all tabs e-chords go to top tab