Evanescence

home > Evanescence

Everybody's Fool Tab

Evanescence

Difficulty: AdvancedAdvanced

by patryck+%28RN%29

tuner correct add songbook print version text version save to e-mail
chordsukulelecavacokeyboardtabbassdrumsharmonicsflute Guitar Pro
chords

Everybody's Fool

Year: 2003 - Album: Anywhere But Home

  		Intro: 
       ( D )          ( Dm )          ( D )          ( Dm )           ( D )        ( Dm ) 
e|-2--2--2--2--2---1--1--1--1--1---2--2--2--2--2---1--1--1--1--1---2--2--2--2--2---1~------- 
B|--3--3--3--3---3--3--3--3--3---3--3--3--3--3---3--3--3--3--3---3--3--3--3--3---3-----2~--- 
G|---2--2--2--2------2--2--2--2------2--2--2--2------2--2--2--2------2--2--2--2------------- 
D|------------------------------------------------------------------------------------------  
A|------------------------------------------------------------------------------------------  
E|------------------------------------------------------------------------------------------  
 
A partir daqui são tocados junto ao solo os acorde D5 Bb5 C5 duas vezes 
 
       ( D )          ( Dm )          ( D )          ( Dm )   
e|-2--2--2--2--2---1--1--1--1--1---2--2--2--2--2---1--1--1--1--1---- 
B|--3--3--3--3---3--3--3--3--3---3--3--3--3--3---3--3--3--3--3---3-- 
G|---2--2--2--2------2--2--2--2------2--2--2--2------2--2--2--2----- 
D|------------------------------------------------------------------ 
A|------------------------------------------------------------------ 
E|------------------------------------------------------------------ 
	  

Full key step upFull key step up
Half key step upHalf key step up
Half key step downHalf key step down
Full key step downFull key step down
Search Paypal
auto scroll beats size up size down change color hide chords drawings
tab show chords e-chords YouTube Clip e-chords hide all tabs e-chords go to top tab