Evanescence

home > Evanescence

Erase This Tab

Evanescence

Difficulty: BeginnerBeginner

by joaoewerton

tuner correct add songbook print version text version save to e-mail
chordsukulelecavacokeyboardtabbassdrumsharmonicsflute Guitar Pro
chords

Erase This

  		

 INTRO 
|------| 
|------| 
|------| 
|------|               
|-14\2-| 
|-14\2-| 

|-----------------------| 
|-----------------------| 
|-----------------------| 
|---0-2-----2---2---0h2-| 4x 
|-----------------------| 
|-2-----2-2---2---2-----| 
        * *   *   * 

 VERSE 
|-----------------------| 
|-----------------------| 
|-----------------------| 
|---0-2-----2---2---0h2-| 4x 
|-----------------------| 
|-2-----2-2---2---2-----| 
        * *   *   * 
|---------------------------------| 
|---------------------------------| 
|-5-5-5-5-5-5-5-5-5-5-5-5-5-5-5-5-| 
|-5-5-5-5-5-5-5-5-5-5-5-5-5-5-5-5-|(not sure how many times) 
|-3-3-3-3-3-3-3-3-3-3-3-3-3-3-3-3-| 
|---------------------------------| 

|-----------------------| 
|-----------------------| 
|-----------------------| 
|---0-2-----2---2---0h2-| 6x 
|-----------------------| 
|-2-----2-2---2---2-----| 
        * *   *   * 
|---------------------------------| 
|---------------------------------| 
|-5-5-5-5-5-5-5-5-5-5-5-5-5-5-5-5-| 
|-5-5-5-5-5-5-5-5-5-5-5-5-5-5-5-5-| 
|-3-3-3-3-3-3-3-3-3-3-3-3-3-3-3-3-| 
|---------------------------------| 

|-----------------------| 
|-----------------------| 
|-----------------------| 
|---0-2-----2---2---0h2-| 2x 
|-----------------------| 
|-2-----2-2---2---2-----| 
        * *   *   * 

 CHORUS 
|----------------------------------------------------------------------| 
|----------------------------------------------------------------------| 
|----------------------------------------------------------------------| 
|-3-3-3-3-3-3-3-3-0-0-0-0-0-0-0-0-7-7-7-7-7-7-7-7-10-10-10-9-9-9-10-10-| 2x 
|-3-3-3-3-3-3-3-3-0-0-0-0-0-0-0-0-7-7-7-7-7-7-7-7-10-10-10-9-9-9-10-10-| 
|-3-3-3-3-3-3-3-3-0-0-0-0-0-0-0-0-7-7-7-7-7-7-7-7-10-10-10-9-9-9-10-10-| 

|-----------------------------------------------------------------| 
|-----------------------------------------------------------------| 
|-----------------------------------------------------------------| 
|-3-3-3-3-3-3-3-3-0-0-0-0-0-0-0-0-7-7-7-7-7-7-7-7-7-7-7-7-7-7-7-7-|  
|-3-3-3-3-3-3-3-3-0-0-0-0-0-0-0-0-7-7-7-7-7-7-7-7-7-7-7-7-7-7-7-7-| 
|-3-3-3-3-3-3-3-3-0-0-0-0-0-0-0-0-7-7-7-7-7-7-7-7-7-7-7-7-7-7-7-7-| 

|---------------------------------| 
|---------------------------------| 
|---------------------------------| 
|-5-5-5-5-5-5-5-5-3-3-3-3-3-3-3-3-| 
|-5-5-5-5-5-5-5-5-3-3-3-3-3-3-3-3-| 
|-5-5-5-5-5-5-5-5-3-3-3-3-3-3-3-3-| 

|-----------------------|    |-------| 
|-----------------------|    |-------| 
|-----------------------|    |-------| 
|---0-2-----2---2---0h2-| 3x |---0-2-|  
|-----------------------|    |-------| 
|-2-----2-2---2---2-----|    |-2-----| 
        * *   *   * 

REPEAT VERSE 

REPEAT CHORUS w/o the last riff  

|----| 
|----| 
|----| 
|-2~-| end 2nd chorus with this 
|-2~-| 
|-2~-| 

BRIDGE 

|---------------------------------------------------------------| 
|---------------------------------------------------------------| 
|---------------------------------------------------------------| 
|-2-2---------2-2-2-------2-2-2-2-2-0h2-----2-2-2-2-2-2-0h2h3p2-| 
|-2-2---------2-2-2-------2-2------------3--2-2-2---------------| 
|-2-2---------2-2-2-------2-2---------------2-2-2---------------| 

|-------------------------------------------------------------------------| 
|-------------------------------------------------------------------------| 
|-9-9-9-9-9-9-9-9-11-11-11-11-12-12-12-12---------------------------------| 
|-----------------------------------------2-2-2-2-2-2-2-2-0-0-0-0-0-0-0-0-| 
|-7-7-7-7-7-7-7-7-9--9--9--9--10-10-10-10-2-2-2-2-2-2-2-2-0-0-0-0-0-0-0-0-| 
|-----------------------------------------2-2-2-2-2-2-2-2-0-0-0-0-0-0-0-0-| 

|-----------------------------------------------------------------| 
|-----------------------------------------------------------------| 
|-----------------------------------------------------------------| 
|-2-2-2-2-2-2-2-2-2-2-2-2-2-2-2-2-5-5-5-5-5-5-5-5-0-0-0-0-0-0-0-0-| 
|-2-2-2-2-2-2-2-2-2-2-2-2-2-2-2-2-5-5-5-5-5-5-5-5-0-0-0-0-0-0-0-0-| 
|-2-2-2-2-2-2-2-2-2-2-2-2-2-2-2-2-5-5-5-5-5-5-5-5-0-0-0-0-0-0-0-0-| 

|-----------------------------------------------------------------| 
|-----------------------------------------------------------------| 
|-----------------------------------------------------------------| 
|-3-3-3-3-3-3-3-3-3-3-3-3-3-3-3-3-7-7-7-7-7-7-7-7-7-7-7-7-7-7-7-7-| 2x 
|-3-3-3-3-3-3-3-3-3-3-3-3-3-3-3-3-7-7-7-7-7-7-7-7-7-7-7-7-7-7-7-7-| 
|-3-3-3-3-3-3-3-3-3-3-3-3-3-3-3-3-7-7-7-7-7-7-7-7-7-7-7-7-7-7-7-7-| 

  

 CHORUS 
|----------------------------------------------------------------------| 
|----------------------------------------------------------------------| 
|----------------------------------------------------------------------| 
|-3-3-3-3-3-3-3-3-0-0-0-0-0-0-0-0-7-7-7-7-7-7-7-7-10-10-10-9-9-9-10-10-| 2x 
|-3-3-3-3-3-3-3-3-0-0-0-0-0-0-0-0-7-7-7-7-7-7-7-7-10-10-10-9-9-9-10-10-| 
|-3-3-3-3-3-3-3-3-0-0-0-0-0-0-0-0-7-7-7-7-7-7-7-7-10-10-10-9-9-9-10-10-| 

|-----------------------------------------------------------------| 
|-----------------------------------------------------------------| 
|-----------------------------------------------------------------| 
|-3-3-3-3-3-3-3-3-0-0-0-0-0-0-0-0-7-7-7-7-7-7-7-7-7-7-7-7-7-7-7-7-|  
|-3-3-3-3-3-3-3-3-0-0-0-0-0-0-0-0-7-7-7-7-7-7-7-7-7-7-7-7-7-7-7-7-| 
|-3-3-3-3-3-3-3-3-0-0-0-0-0-0-0-0-7-7-7-7-7-7-7-7-7-7-7-7-7-7-7-7-| 

|-----------------------------------------------------------------| 
|-----------------------------------------------------------------| 
|-----------------------------------------------------------------| 
|-5-5-5-5-5-5-5-5-3-3-3-3-3-3-3-3-7-7-7-7-7-7-7-7-7-7-7-7-7-7-7-7-| 
|-5-5-5-5-5-5-5-5-3-3-3-3-3-3-3-3-7-7-7-7-7-7-7-7-7-7-7-7-7-7-7-7-| 
|-5-5-5-5-5-5-5-5-3-3-3-3-3-3-3-3-7-7-7-7-7-7-7-7-7-7-7-7-7-7-7-7-| 

|---------------------------------| 
|---------------------------------| 
|---------------------------------| 
|-5-5-5-5-5-5-5-5-3-3-3-3-3-3-3-3-| 
|-5-5-5-5-5-5-5-5-3-3-3-3-3-3-3-3-| 
|-5-5-5-5-5-5-5-5-3-3-3-3-3-3-3-3-|  

|-----------------------| 
|-----------------------| 
|-----------------------| 
|---5-7-----7---7---5h7-| 7x 
|-----------------------| 
|-7-----7-7---7---7-----| 
        * *   *   * 
|----------------------| 
|----------------------| 
|----------------------| 
|---5-7-----7---7---7\-| 
|----------------------| 
|-7-----7-7---7---7----| 
        * *   *   * 
	  

Search Paypal
auto scroll beats size up size down change color hide chords drawings
tab show chords e-chords YouTube Clip e-chords hide all tabs e-chords go to top tab