Evanescence

home > Evanescence

Drowning you Tab

Evanescence

Difficulty: nolevelnolevel

by europeu

tuner correct add songbook print version text version save to e-mail
chordsukulelecavacokeyboardtabbassdrumsharmonicsflute Guitar Pro
chords

Drowning you

  		B ||----------------------|-----------------------|-----------------------| 
F#||----------------------|-----------------------|-----------------------| 
D ||----------------------|-----------------------|-----------------------| 
A ||-2--2---2--2-2--------|--2--2---2--2-2--------|--2--2---2--2-2--------| 
E ||-2--2---2--2-2--------|--2--2---2--2-2--------|--2--2---2--2-2--------| 
B ||-0--0---0--0-0--------|--0--0---0--0-0--------|--0--0---0--0-0--------| 
 
-----------------------|-----------------------|-----------------------| 
-----------------------|-----------------------|-----------------------| 
-----------------------|-----------------------|-----------------------| 
--2--2---2--2-2--------|--2--2---2--2-2--------|--2--2---2--2-2--------| 
--2--2---2--2-2--------|--2--2---2--2-2--------|--2--2---2--2-2--------| 
--0--0---0--0-0--------|--0--0---0--0-0--------|--0--0---0--0-0--------| 
 
-----------------------|-----------------------|------------------| 
-----------------------|-----------------------|------------------| 
-----------------------|-----------------------|------------------| 
--2--2---2--2-2--------|--2--2---2--2-2--------|------------------| 
--2--2---2--2-2--------|--2--2---2--2-2--------|------------------| 
--0--0---0--0-0--------|--0--0---0--0-0--------|------------------| 
 
Guitar 2 
 
------------------13--|--------------------------|------------------------| 
----------------------|----------15----------13--|----12--------------13--| 
----------------------|----------------12--------|------------------------| 
------14--------------|----15--------------------|--------13--------------| 
----------------------|--------------------------|------------------------| 
----------------------|--------------------------|------------------------| 
 
----------------------|------------------|------------------|------------------| 
----12----------------|------------------|------------------|------------------| 
----------------------|------------------|------------------|------------------| 
--------12------------|------------------|------------------|------------------| 
----------------------|------------------|------------------|------------------| 
----------------------|------------------|------------------|------------------| 
 
1st and 2nd Pre-Chorus 
 
--0----------------|--0----------------|--0----------------| 
--0----------------|--0----------------|--0----------------| 
--5----------------|--7----------------|--2----------------| 
--5----------------|--7----------------|--2----------------| 
--3----------------|--5----------------|--0----------------| 
-------------------|-------------------|-------------------| 
 
--0----------------| 
--0----------------| 
--2----------------| 
--2----------------| 
--0----------------| 
-------------------| 
 
Guitar 2 - 1st and 2nd Pre-Chorus 
 
------------------------------------------| 
--------12-------12-------13-------10-----| 
-----12-------12-------12-------12--------| 
--10-------10-------10-------10-----------| 
------------------------------------------| 
------------------------------------------| 
 
--------12------------------------------------| 
-----------------12-------13-------10---------| 
-----11-------11-------11-------11------12-11-| 
--12-------12-------12-------12---------------| 
----------------------------------------------| 
----------------------------------------------| 
 
--------12--------------------------------| 
-----------------12-------13--------------| 
-----------------------------------14-----| 
-----14-------14-------14-------14--------| 
--12-------12-------12-------12-----------| 
------------------------------------------| 
 
--------12--------------------------------| 
-----------------12-------13--------------| 
-----------------------------------14-----| 
-----14-------14-------14-------14--------| 
--12-------12-------12-------12-----------| 
------------------------------------------| 
 
Chorus 
 
--------------------------|--------------------------| 
--------------------------|--------------------------| 
-----------------5--5--5--|--------------------------| 
--2----2---2-2-x-5--5--5--|--5----5---5-----7--7--7--| 
--2----2---2-2-x-3--3--3--|--5----5---5-----5--5--5--| 
--0----0---0-0------------|--3----3---3-3p0-5--5--5--| 
 
---------------------------|---------------------------| 
---------------------------|---------------------------| 
---------------5-5--5--5-0-|---------------------------| 
--2----2---2-2-5-5--5--5-0-|--5----5---5-5-------------| 
--2----2---2-2-3-3--3--3---|--5----5---5-5-5-5--5--5---| 
--0----0---0-0-------------|--3----3---3-3-2-2--2--2-0-| 
 
--------------------------|--------------------------| 
--------------------------|--------------------------| 
-----------------5--5--5--|--------------------------| 
--2----2---2-2-x-5--5--5--|--5----5---5-----7--7--7--| 
--2----2---2-2-x-3--3--3--|--5----5---5-----5--5--5--| 
--0----0---0-0------------|--3----3---3-3p0-5--5--5--| 
 
---------------------------|---------------------------|-----------------------| 
---------------------------|---------------------------|-----------------------| 
---------------5-5--5--5-0-|---------------------------|-----------------------| 
--2----2---2-2-5-5--5--5-0-|--5----5---5-5-------------|--2--2---2--2-2--------| 
--2----2---2-2-3-3--3--3---|--5----5---5-5-5-5--5--5-5-|--2--2---2--2-2--------| 
--0----0---0-0-------------|--3----3---3-3-2-2--2--2-2-|--0--0---0--0-0--------| 
 
Bridge 
 
--------------------------|---------------------------| 
--------------------------|---------------------------| 
--5--5--5--5--5--5--5--5--|--4--4--4--4--4--4--4------| 
--5--5--5--5--5--5--5--5--|--4--4--4--4--4--4--4------| 
--3--3--3--3--3--3--3--3--|--2--2--2--2--2--2--2--2-2-| 
--------------------------|-----------------------0-0-| 
 
--------------------------|---------------------------| 
--------------------------|---------------------------| 
--------------------------|---------------------------| 
--2--2--2--2--2--2--2--2--|--2--2--2--2--2--2--2--2-2-| 
--2--2--2--2--2--2--2--2--|--2--2--2--2--2--2--2--2-2-| 
--0--0--0--0--0--0--0--0--|--0--0--0--0--0--0--0--0-0-| 
 
--------------------------|-----------------------| 
--------------------------|-----------------------| 
--5--5--5--5--5--5--5--5--|--4--4--4--4--4--------| 
--5--5--5--5--5--5--5--5--|--4--4--4--4--4--------| 
--3--3--3--3--3--3--3--3--|--2--2--2--2--2--------| 
--------------------------|-----------------------| 
 
Guitar Solo 
 
----------------------------------------|----------------------------------0-0-| 
----------------------------------------|--------------------------------------| 
--------------12--12--------------------|--14p12----12-------------------------| 
--------12-14---------14----14-14-14-14-|--------14----14p12----12-14----------| 
--12-14---------------------------------|--------------------14----------------| 
----------------------------------------|--------------------------------------| 
 
------------------------------------| 
--15b-------15--15--15--15--15--15r-| 
------------------------------------| 
------------------------------------| 
------------------------------------| 
------------------------------------| 
 
-------------------------------------------------| 
--15p13-12h13p12----12---------------------------| 
-----------------14----14-12----12----12-14---12-| 
-----------------------------14----14------------| 
-------------------------------------------------| 
-------------------------------------------------| 
 
Final Pre-Chorus 
--0----------------|--0----------------|--0------------0----| 
--0----------------|--0----------------|--0------------0----| 
--5----------------|--7----------------|--2------------4----| 
--5----------------|--7----------------|--2------------4----| 
--3----------------|--5----------------|--0------------2----| 
-------------------|-------------------|--------------------| 
 
--0----------------|------------------|------------------|----------------| 
--0----------------|------------------|------------------|----------------| 
--5----------------|------------------|------------------|----------------| 
--5----------------|------------------|------------------|----------------| 
--3----------------|------------------|------------------|----------------| 
-------------------|------------------|------------------|----------------| 
 
Outro 
 
|-----------------------|| 
|-----------------------|| 
|-----------------------|| 
|--2--2---2--2-2--------|| 
|--2--2---2--2-2--------|| 
|--0--0---0--0-0--------|| 
 

	  

Search Paypal
auto scroll beats size up size down change color hide chords drawings
tab show chords e-chords YouTube Clip e-chords hide all tabs e-chords go to top tab