Evanescence

home > Evanescence

Disappear Tab

Evanescence

Difficulty: ExpertExpert

by joaoewerton

tuner correct add songbook print version text version save to e-mail
chordsukulelecavacokeyboardtabbassdrumsharmonicsflute Guitar Pro
chords

Disappear

  		

Intro 
D|-----------------------------------------------------------------| 
A|-----------------------------------------------------------------| 
F|-----------------------------------------------------------------| 
C|-----------------------------------------------------------------| 
G|---6p5---8-----6p5---5---5h6-------6p5---8p5---6p5---5---5h6-----| 
C|-5-----5-----5-----5---5-----5-5-------5-----5-----5---5-----5-5-| 
   .     .     .     .   .     . .       .     .     .   .     . . 

D|-----------------------------------------------------------------| 
A|-------6-------6---6---6---6-----------6-------6---6-------6-----| 
F|-------5-------5---5---5---5-----------5-------5---5-------5-----| 
C|-3-----3-------3---3---3---3-----3-----3-------3---3-------3-----| 
G|-3-------3-3-3-3---3-3-3---3-3-3-3-------3-3-3-3-3-3-3-3-3-3-3---| 
C|-3-------3-3-3-3---3-3-3---3-3-3-3-------3-3-3-3-3-3-3-3-3-3-3---| 
           . . .       .       . .         . . .   .   . . .   . 


Verse 
D|-----------------------------------------------------------------| 
A|-----------------------------------------------------------------| 
F|-----------------------------------------------------------------| 
C|-----------------------------------------------------------------| 
G|---6p5---8-----6p5---5---5h6-------6p5---8p5---6p5---5---5h6-----| 
C|-5-----5-----5-----5---5-----5-5-------5-----5-----5---5-----5-5-| 
   .     .     .     .   .     . .       .     .     .   .     . . 

D|-----------------------------------------------------------------| 
A|-------6-------6---6---6---6-----------6-------6---6-------6-----| 
F|-------5-------5---5---5---5-----------5-------5---5-------5-----| 
C|-3-----3-------3---3---3---3-----3-----3-------3---3-------3-----| 
G|-3-------3-3-3-3---3-3-3---3-3-3-3-------3-3-3-3-3-3-3-3-3-3-3---| 
C|-3-------3-3-3-3---3-3-3---3-3-3-3-------3-3-3-3-3-3-3-3-3-3-3---| 
           . . .       .       . .         . . .   .   . . .   . 


Pre-chorus 
D|-----------------------------------------------------------------| 
A|-----------------------------------------------------------------| 
F|-----------------------------------------------------------------| 
C|-1-------------------------------3-------------------------------| 
G|-1-------------------------------3-------------------------------| 
C|-1-------------------------------3-------------------------------| 

D|-----------------------------------------------------------------| 
A|-----------------------------------------------------------------| 
F|-----------------------------------------------------------------| 
C|-----------------------------------------------------------------| 
G|---6p5---8-----6p5---5---5h6-------6p5---8p5---------------3h5---| 
C|-5-----5-----5-----5---5-----5-5-------5-----5-5-3-3-3-3-3-------| 
   .     .     .     .   .     . .       .     . . . . . . . 

D|-----------------------------------------------------------------| 
A|-----------------------------------------------------------------| 
F|-----------------------------------------------------------------| 
C|-1---1---1---1---1---1---1---1-/-3---3---3---3---3---3---3---3---| 
G|-1---1---1---1---1---1---1---1-/-3---3---3---3---3---3---3---3---| 
C|-1---1---1---1---1---1---1---1-/-3---3---3---3---3---3---3---3---| 


Chorus 
D|-----------------------------------------------------------------| 
A|-----------------------------------------------------------------| 
F|-----------------------------------------------------3---3---3-3-| 
C|-5-------5-----------0---0---0-0-1-------1-----------3---3---3-3-| 
G|-5-------5-----------0---0---0-0-1-------1-----------1---1---1-1-| 
C|-5-------5-----------0---0---0-0-1-------1-----------------------| 

D|---------------------------------------------------------------------| 
A|---------------------------------------------------------------------| 
F|---------------------------------------------------------------------| 
C|---------------------------------------------------------------------| 
G|-3---3-3-3-3-3-3b4r3-3-3---3-3-3-3-3---3-3-3-3-3-3b4r3-3-3---3-3-3-3-| 
C|---------------------------------------------------------------------| 

D|-----------------------------------------------------------------| 
A|-----------------------------------------------------------------| 
F|-----------------------------------------------------3---3---3-3-| 
C|-5-------5-----------0---0---0-0-1-------1-----------3---3---3-3-| 
G|-5-------5-----------0---0---0-0-1-------1-----------1---1---1-1-| 
C|-5-------5-----------0---0---0-0-1-------1-----------------------| 

D|-----------------------------------------------------------------| 
A|-----------------------------------------------------------------| 
F|-----------------------------------------------------------------| 
C|-3-------3-------3-------3-------1-------1-------1-------1-------| 
G|-3-------3-------3-------3-------1-------1-------1-------1-------| 
C|-3-------3-------3-------3-------1-------1-------1-------1-------| 


Verse 
Pre-chorus 
Chorus 


Bridge 
D|-----------------------------------------------------------------| 
A|-----------------------------------------------------------------| 
F|-----------------------------------------------------------------| 
C|-----------------------------------------------------------------| 2x 
G|-------------------------5-----------------------5-------5-------| 
C|---------------------------0-5/7-------------------0-5/7---0-5/7-| 

D|-----------------------------------------------------------------| 
A|-----------------------------------------------------------------| 
F|-----------------------------------------------------------------| 
C|-----------------------------------------------------------------| 2x 
G|-------------------------5-----------------------5-------5-------| 
C|-0-0-0-0-0-0-0-0-0-0-0-0---0-5/7-0-0-0-0-0-0-0-0---0-5/7---0-5/7-| 
   . . . . . . . . . . . .         . . . . . . . . 


Chorus 


Ending 
D|-----------------------------------------------------------------| 
A|-----------------------------------------------------------------| 
F|-----------------------------------------------------------------| 
C|-----------------------------------------------------------------| 
G|-6p5---8p5---6p5---5---5h6-------6p5---8p5---6p5---5---5h6-------| 
C|-----5-----5-----5---5-----5-5-------5-----5-----5---5-----5-5---| 
       .     .     .   .     . .       .     .     .   .     . . 

D|-----------------------------------------------------------------| 
A|-----------------------------------------------------------------| 
F|-----------------------------------------------------------------| 
C|-----------------------------------------------------------------| 
G|-6p5---8p5---6p5---5---5h6-------6p5---8p5---6p5---5---5h6-------| 
C|-----5-----5-----5---5-----5-5-------5-----5-----5---5-----5-5---| 
       .     .     .   .     . .       .     .     .   .     
 
	  

Search Paypal
auto scroll beats size up size down change color hide chords drawings
tab show chords e-chords YouTube Clip e-chords hide all tabs e-chords go to top tab