Eva Cassidy

home > Eva Cassidy

Danny Boy Tab

Eva Cassidy

Difficulty: ExpertExpert

tuner correct add songbook print version text version save to e-mail
chordsukulelecavacokeyboardtabbassdrumsharmonicsflute Guitar Pro
chords

Danny Boy

  		I tried to line up the lyrics with the tablature,  
but it doesn't work all the way through.   
Just listen to the CD and you can 
figure it out.  Sorry I made the lines so long.   
 
 
 
    C                          C                   C                            F 
-------------------------------------------------0-------------------------------------------- 
----1----------------------------1-----------------------1------------------------1----------- 
-------------------------------0--------0---0---------0--------0----0----------2-----2-------- 
----------------------------2--------0----0--------2-------0-----2----------3----------------- 
----3--------------------3-----------------------3-------------------------------------------- 
----------------------------------------------------------------------------1----------------- 
              Oh, Danny  Boy                 the pipes the pipes are        calling   
       
 
               Dm7              Dm7             C                        
    
|----------------1---------------1------------------------------- 
|-----------------------1---------------1------------------------ 
|----2-----0---------2-----2---------2-----0---------0----------- 
|--3-----2-------0---------------0----------------2-----2------0- 
|--3-----3--------------------------------------3-----------2---- 
|---------------------------------------------------------------- 
                                 from glen to glen 
 
                                            Am           G            Dm7                  
                                                                                           
                               -------------------------------------------------1---------| 
                               ----------------------------------------1---------------1--| 
                               -0-------------2-------------0-------2-----2--------2------| 
                               ----0-------2-----2-------0-----0--0-------------0---------| 
                               --------0-----------------------------------------------0--| 
                               -----------------------3-----------------------------------| 
                                  and down the        mountain        side                 
   
 
  G                              C   
|----------------------------------------------------- 
|--3--------------------3--------------1-------------- 
|--0--------0---------0--------------0-------0----0--- 
|--------0-----0---0---------0-----2-------0----0----- 
|--------------------------------3-------------------- 
|--3-------------------------------------------------- 
               The summer's     gone                  
 
                   C                              F                          Dm7            
                ---0--------------------------------------------------------1-------------|  
                ---------1-------------------------1-------------------------------1------|  
                -------0--------0-----0---------2-----2---------2-------0-------2-----2---|  
                -----2-------0-----2---------3--------------3-------2-------0-------------|  
                ---3----------------------------------------3-------3---------------------|  
                -----------------------------1--------------------------------------------|  
                   and all the flowers       dying                                          
                                                                            
 
  
   Dm7                 C                               Dm7    
|--1------------------------------0-----0-------------------- 
|----------1----------------------1-----1--------------1----- 
|-------2-----0----------0-----------0------0-------2-----2-- 
|--0------------------2-----2-----0-----2-------0------------ 
|-------------------3---------------------------------------- 
|------------------------------------------------------------ 
  Tis you, tis      you             must        go and        
   
                                             G                  C 
                                          -----------------------------------------------| 
                                          --------------------------------1------------1-| 
                                          ---------0-------------0-----------0-----0-----| 
                                          ------0-----0--------2----2-----3-----3------2-| 
                                          ------------------3--------------------------3-| 
                                          -3---------------------------------------------| 
                                           I           must bide 
 
  G                  C                            F 
|--------------------------------------------------------------- 
|-------------------------1------------------------------1------ 
|-------0---------------0-------0----------------------2-------- 
|-----0---0----------2-------0-----2-----------------3---------- 
|------------------3-------------------------------------------- 
|--3----------------------------------------------1----------1-- 
      But come ye back           when            summer's in    
       
                                                  C                 G                
                                    ------------------------------------------------| 
                                    ------------------------------1p0---------------| 
                                    ---2-----------0---------0------------------0---| 
                                    -3---3-------2---2-----2---2--------------0---0-| 
                                    ---------3----------3---------------------------| 
                                    -------------------------------3----------------| 
                                      the    meadow                                  
  
  
   G                      Am            G               F  
|--------------------------------------------------------------- 
|---0----------------------------------------------------1------ 
|--------0-----------------2------------0-------------2-----2--- 
|------0---0-------------2---2--------0---0--------3------------ 
|----------------------0---------------------------------------- 
|---3-------------------------------3--------------1------------ 
    or when the        va-         -a-     lley's  hushed and    
 
                            Em             Dm7                     G              
                      ------------------------------1----------------------------| 
                      ----------------------1----------------1-----3-------------| 
                      --------0-----------2---2----------2---------0------0------| 
                      ------2---2-----0-------------0-----------0-------0---0----| 
                      ---------------------------------------0-------------------| 
                      ---0-----------------------------------------3-------------| 
                         white with  snow                                         
                                                                
    G           C                          F                      C  
-----------------------------------------------------5------------------------------- 
----------------------------------------------1------6------------------------------- 
------0-----------0--------0----0----------2-----------------------0----------0------ 
----0---0-------2---2----0----2---------3------------------------2---2------2---2---- 
--------------3------------------------------------------------3----------3---------- 
--3-------------------------------------1-------------------------------------------- 
 Tis I'll be  here       in             sunshine       or in   shadow        
 
 
 
     F                             C                 Am 
|-------------------------------------------------------------- 
|------------------1-----1------------1----------------1------- 
|---------2--------2-----2------------0----------------2------- 
|------3-----3--------3-----3------2------2---------2------2--- 
|--------------------------------3------------0---------------- 
|--1---------------1------------------------------------------- 
                   Oh, Danny     Boy     oh,  Danny             
 
                             Dm7            G           C                                
                        ------1---------------------------------------------------------| 
                        ------1---------------------------------1-----1-----1-----1-----| 
                        ----2----2-----------0-----------0---------0-----0------0---0---| 
                        -0----------------0-----0------2---2----3-----3-----2-----------| 
                        -----------------------------3----------------------3-----------| 
                        ----------------3-----------------------------------------------| 
                         Boy         I  love you     so                                  
 
 
     
|--------------------------0---------------3--------------------------------- 
|-1p0------------------------------1-------------1--------------1------------ 
|------------0-------------------0---------------0------------0-------0------ 
|---------0-----0--------------2--------------2------2------2-------0----2--- 
|--------------------------3---------------3--------------3------------------ 
|--3------------------------------------------------------------------------- 
        But when ye       come                           and all the roses   
         
        ----------------------------1---------------| 
        ------1----------------------------1--------| 
        ----2---2--------2------0--------2---2------| 
        -3-----------3-------2------0---------------| 
        -------------3-------3----------------------| 
        -1------------------------------------------| 
         falling                                     
         
         
 
 
 
     
|-----1------1---------------------------------------------------------------- 
|------------1-------------1-------------0------------------------------------ 
|---------2-----2----------0-------------0-----------2-----------0----------2- 
|-----0----------------2-------------0-------------2---2-------0---0-----0---- 
|--------------------3--------3---2---------2----0---------------------------- 
|-----------------------------------------------------------3----------------- 
      and I am       dead               as       dead  I    well     may be  
 
                   -----------1---------------------------| 
                   ---1---------------1-------3-----------| 
                   ---2-------2---2-------0--------0------| 
                   -------0-----------0----------0---0----| 
                   ---------------------------------------| 
                   ---------------------------3-----------| 
                                        
 
|-------------------------------------------------------------------- 
|----------------------------------------1-------1------------------- 
|----------0-------------0--------0------0-------0------------0------ 
|--------0---0---------2---2----2---2--------2-------2------2---2---- 
|--------------------3--------3----------3-------3-------3----------- 
|----3---------------------------------------------------------------  
     go out and      find                the place where I am         
     
     
    -----------------------------------1------------1-------|  
    -----------1-----------------------1------------1-------|  
    ---------2---2------2-----0-----2-----2-------2---0-----|  
    ------3-----------3-----2-----0-------------0-----------|  
    ------------------3-----3-------------------------------|  
    ------1-------------------------------------------------|  
          lying                                and kneel and  
     
     
|--------------0-----0-------1----------------------------------------- 
|--------------1-----1------------1------------------------------------ 
|-------0---------0-----0-------2---2-------------0--------------0----- 
|----2----2----0-----2-------0------------------0---0---------2-----2-- 
|--3--------------------------------------------------------3---------- 
|---------------------------------------------3------------------------ 
   say          an           Ave              there   for   me          
 
                -----------------------------------|  
                --1------------1--------1----------|  
                -----0-----0---------0-----0-------|  
                --3-----0-----0h2-------2----------|  
                ---------------3-------------------|  
                -----------------------------------|  
                                     
 
|------------------------------------------------------------------------------------- 
|-------------------------1----------------------1------------------------------------ 
|-------0---------------0--------0---0---------2----------2-------------0---------0--- 
|-----0---0-----------2-------0----2---------3----------3---3--------2-----2----2---2- 
|-------------------3----------------------------------------------3----------3------- 
|--3--------------------------------------1----------1-------------------------------- 
   And I will       he      -ar    though soft your  tread    a -  bove me  
 
            ---------------------| 
            ------0--------------| 
            ------0------0-------| 
            -----------0---0-----| 
            ---------------------| 
            ------3--------------| 
 
 
 
        
|------------------------------------------------------------------------------ 
|--0-----------------------------------------------------------------------1--- 
|--0------0-----------------2----------0-----2----2-----------0----------2---2- 
|-------0---0-------------2---2------0---0------3---3-------2---2------0------- 
|----------------------0------------------------------------------------------- 
|--3------------------------------3----------1------------0-------------------- 
   and then my         gra-       -ave will  wam and      sweeter      be            
    
   --1-----------------------------| 
   -----------1-------3------------| 
   ------2----2-------0-----0------| 
   --0------------0-------0---0----| 
   --------------------------------| 
   -------------------3------------| 
    
   
|--------------------------------------------------------5---- 
|----------------------------------------------1--------6----- 
|---0----0------------0--------0-----0-------2---------5------ 
|------0---0--------2---2---0-----2--------3----------0------- 
|-----------------3------------------------------------------- 
|---3-----------------------------------1--------------------- 
    for you shall be        -end   and  tell me                
 
                  ------------------------------------------------| 
                  -------------------------1------------------1---| 
                  -----------------------0------0-----------2-----| 
                  ---------------------2------0---2-------3-------| 
                  -------------------3----------------------------| 
                  --------------------------------------1---------| 
                    that you         love     me                   
 
   
 
|------------------------------------------------------1---------------------------- 
|---------1--------------------1-----1-----------------1---------------------------- 
|-------2---------------0------2-----2--------------2-----2-------0----------------- 
|-----3---------------2---2-------2--------------0---------------------------------- 
|-------------------3----------0-----0---------------------------------------------- 
|--1--------------------------------------------------------------3----------------- 
   and     I will   sleep in   peace         un  til      you     come  
 
 
              
|------------------------------------------ 
|------------1----------1-------1---------- 
|---------------0---0-------0----------0--- 
|---------2---------3-------0---------0h2-- 
|-------3----------------------------3----- 
|------------------------------------------ 
 to  me   
	  

Full key step upFull key step up
Half key step upHalf key step up
Half key step downHalf key step down
Full key step downFull key step down
Search Paypal
auto scroll beats size up size down change color hide chords drawings
tab show chords e-chords YouTube Clip e-chords hide all tabs e-chords go to top tab