Europe

The Siege

Europe

tabs

by  AMAN_CLAUDINO

save to print version add songbook text version e-mail correct tuner
chordsukulelecavacokeyboardtabbassdrumsharmonicaflute Guitar Pro
close

there isn't a video lesson for this song

chords

The Siege

	  		
Verse 

e|-------------------------------------------------------| 
B|-------------------------------------------------------| 
G|-------------------------------------------------------| 
D|-------------------------------------------------------| 
A|--------------------------------------------2-1--------| 
E|-0-2-3-2--0-2-3-2--0-2-3-2-0-2-3-2--0-2-3-2-----3-2----| 


e|----------------------------------------------------| 
B|----------------------------------------------------| 
G|----------------------------------------------------| 
D|----------------------------------------------------| 
A|------------------------------------5--2-1-2-1------| 
E|-0-2-3-2--0-2-3-2--0-2-3-2-0-2-3-2-------------3----| x2 


e|-------------------| 
B|-------------------| 
G|-------------------| 
D|-------------------| 
A|-------------------| 
E|-0-2-3-2----0-2----| x2 


e|----------------------------| 
B|----------------------------| 
G|----------------------------| 
D|----------------------------| 
A|----------------------------| 
E|-0-2-3-2----0-2------0-2----| 


e|-----------------------------| 
B|-----------------------------| 
G|-----------------------------| 
D|-----------------------------| 
A|------------5--2-1-2-1-------| 
E|-0-2-3-2----------------3----| 


Chorus 

We can't let go.... 

e|-----3-----------------3----------| 
B|-----3-----------------3----------| 
G|-4------------4-----------2--3----| 
D|-4--------2---4---2-------2--3----| 
A|-2---2----2---2---2----2--0--1----| 
E|-----3----0-------0----3----------| 

From the Siege.. 

e|-----3-----------------3-------------| 
B|-----3-----------------3-------------| 
G|-4------------4-----------2--3--2----| 
D|-4--------2---4---2-------2--3--2----| 
A|-2---2----2---2---2----2--0--1--0----| 
E|-----3----0-------0----3-------------| 


Verse 

e|-------------------------------------------------------| 
B|-------------------------------------------------------| 
G|-------------------------------------------------------| 
D|-------------------------------------------------------| 
A|--------------------------------------------2-1--------| 
E|-0-2-3-2--0-2-3-2--0-2-3-2-0-2-3-2--0-2-3-2-----3-2----| 


e|----------------------------------------------------| 
B|----------------------------------------------------| 
G|----------------------------------------------------| 
D|----------------------------------------------------| 
A|------------------------------------5--2-1-2-1------| 
E|-0-2-3-2--0-2-3-2--0-2-3-2-0-2-3-2-------------3----| x2 

You get the idea. 

Solo coming soon. 
		  

See also:

tabs Yngwie Malmsteen - Seventh Sign tabs Yngwie Malmsteen - Acoustic tabs Yngwie Malmsteen - Fire and Ice tabs Yngwie Malmsteen - Far Beyond The Sun tabs Yngwie Malmsteen - Anguish and Fear tabs Europe - Reason
e-chords

Other versions:

tabs Europe - The Siege
auto scroll beats size up size down change color hide chords drawings
tab show chords e-chords YouTube Clip e-chords hide all tabs e-chords go to top tab

share