Europe

home > Europe

The Final Countdown Tab

Europe

Difficulty: ExpertExpert

by creuzebek

tuner correct add songbook print version text version save to e-mail
chordsukulelecavacokeyboardtabbassdrummharmonicsflute Guitar Pro
chords

The Final Countdown

	  


INTRODUÇÃO 1ª PARTE


 e|----------------------------------------------------------|
 B|----------------------------------------------------------|
 G|--6-4-6------7-6-7-6-4----7-6-7--------4---4-----4--------|
 D|--------4--------------------------4-----7---7-6---7------|
 A|----------------------------------------------------------|
 E|----------------------------------------------------------|



 e|----------------------------------------------------------|
 B|----------------------------------------------------------|
 G|-6-4-6------7-6-7-6-4-----7-6-7--------4---4-----4--------|
 D|--------4-----------------------4--6-----7---7-6---7------|
 A|----------------------------------------------------------|
 E|----------------------------------------------------------|




 e|----------------------------------------------------------|
 B|----------------------------------------------------------|
 G|-----4------4-6-4h6p4-------7-6----6-7-6h7p6----6---------| 
 D|-6-7------7-----------7-6-4-------------------9-----------|
 A|----------------------------------------------------------|
 E|----------------------------------------------------------|




 e|----------------------------------------------------------|
 B|----------------------------------------------------------|
 G|------4----4-6--4h6p4---------7-6----6-7-6h7p6---6--------|
 D|-6--7----7-------------7-6-4-------------------9----------|
 A|----------------------------------------------------------|
 E|----------------------------------------------------------|

INTRODUÇÃO 2ª PARTE


 e|----------------------------------------------------------|
 B|----------------------------------------------------------|
 G|----------------------------------------------------------|
 D|-----------------------------7----------------------------|
 A|-4---------------------------5--5-5-5--5-5-5--5-5-5-5-5---|
 E|-2--2-2-2--2-2-2--2-2-2--2-2------------------------------|




 
 e|----------------------------------------------------------|
 B|----------------------------------------------------------|
 G|----------------------------------------------------------|
 D|-4--------------------------------------------------------|
 A|-2--2-2-2--2-2-2--2-2-2--2-2-2--2-2-2--2-2-2--2-2-2--2-2--|
 E|-----------------------------0----------------------------|



 e|----------------------------------------------------------|
 B|----------------------------------------------------------|
 G|----------------------------------------------------------|
 D|-----------------------------7----------------------------|
 A|-4---------------------------5--5-5-5--5-5-5--5-5-5-5-5---|
 E|-2--2-2-2--2-2-2--2-2-2--2-2------------------------------|




 e|----------------------------------------------------------|
 B|----------------------------------------------------------|
 G|----------------------------------------------------------|
 D|--4----------------------------9--------------------------|
 A|--2--2-2-2--2-2-2--2-2-2--2-2--7-7-7-7--7-7-7--7-7-7--7-7-|
 E|----------------------------------------------------------|



 e|----------------------------------------------------------|
 B|----------------------------------------------------------|
 G|----------------------------------------------------------|
 D|-------2---------7--6-------------------------------------|
 A|-4-----0---------5--4---4h5p4-----4---4-------------------|
 E|-2--4-----4-2-0----------------7------2-------------------|




 VERSO 1



 e|----------------------------------------------------------|
 B|----------------------------------------------------------|
 G|----------------------------------------------------------|
 D|--------4--------------------7----------------------------|
 A|--4-----2-----4---4-----7----5--5-5-5--5-5-5--5-5-5-5-5---|
 E|-\2---0-----0-2---2---4-5---------------------------------|




 e|----------------------------------------------------------|
 B|----------------------------------------------------------|
 G|----------------------------------------------------------|
 D|-9--------------------------------------------------------|
 A|-7-7-7-7--7-7-7--7-7-7--7-7--7----------------------------|
 E|-----------------------------5--5-5-5--5-5--4--4-4-4--4-4-|




 e|----------------------------------------------------------|
 B|----------------------------------------------------------|
 G|----------------------------------------------------------|
 D|------------------------------7---------------------------|
 A|-4--------------2-------------5--5-5-5--5-5-5--5-5-5--5-5-|
 E|-2--4-4-4--4-4--0--0-0-0--0-0-----------------------------|




 e|----------------------------------------------------------|
 B|----------------------------------------------------------|
 G|----------------------------------------------------------|
 D|-6-----------------------------9-9----9-9----9------------|
 A|-4--4-4-4--4-4-4--4-4-4--4-4---7-7-xx-7-7-xx-7------------|
 E|----------------------------------------------------------|



 REFRÃO 1


 e|----------------------------------------------------------|
 B|----------------------------------------------------------|
 G|----------------------------------------------------------|
 D|-----------------------------7----------------------------|
 A|-4---------------------------5--5-5-5--5-5-5--5-5-5--5-5--|
 E|-2--2-2-2--2-2-2--2-2-2--2-2------------------------------|





 

 e|------------------------------------------------------------|
 B|------------------------------------------------------------|
 G|------------------------------------------------------------|
 D|-4----------------------------------------------------------|
 A|-2--2-2-2--2-2-2---2-2-2---2-2-2---2-2-2---2-2-2---2-2------|
 E|-------------------------------0----------------------------|



 e|------------------------------------------------------------|
 B|------------------------------------------------------------|
 G|------------------------------------------------------------|
 D|------------------------------7-----------------------------|
 A|-4----------------------------5--5-5-5--5-5-5--5-5-5--5-5---|
 E|-2--2-2-2--2-2-2--2-2-2--2-2--------------------------------|




 e|------------------------------------------------------------|
 B|------------------------------------------------------------|
 G|------------------------------------------------------------|
 D|-4---------------------------9------------------------------|
 A|-2--2-2-2--2-2-2--2-2-2--2-2-7--7-7-7--7-7-7--7-7-7--7-7-4--|
 E|---------------------------------------------------------2--|


 VERSO 2
  
 e|------------------------------------------------------------|
 B|------------------------------------------------------------|
 G|------------------------------------------------------------|
 D|-------4------------2--6--7---------------------------------|
 A|--4----2---4---4----0--4--5--5-5-5--5-5-5--5-5-5--5-5-------|
 E|-\2--0---0-2---2--4-----------------------------------------|




 e|------------------------------------------------------------|
 B|------------------------------------------------------------|
 G|------------------------------------------------------------|
 D|-9----------------------------------------------------------|
 A|-7--7-7-7--7-7-7--7-7-7--7-7--7-----------------------------|
 E|------------------------------5--5-5-5--5-5--4--4-4-4--4-4--|




 e|------------------------------------------------------------|
 B|------------------------------------------------------------|
 G|------------------------------------------------------------|
 D|-------------------------------7----------------------------|
 A|-4--------------2--------------5--5-5-5--5-5-5--5-5-5--5-5--|
 E|-2--4-4-4--4-4--0--0-0-0--0-0-------------------------------|




 e|------------------------------------------------------------|
 B|------------------------------------------------------------|
 G|------------------------------------------------------------|
 D|-6-----------------------------9-9-------9-9-----9----------|
 A|-4--4-4-4--4-4-4--4-4-4--4-4---7-7--x-x--7-7-x-x-7----------|
 E|------------------------------------------------------------|




 e|------------------------------------------------------------|
 B|------------------------------------------------------------|
 G|------------------------------------------------------------|
 D|-------------------------------7----------------------------|
 A|--4----------------------------5--5-5-5--5-5-5--5-5-5--5-5--|
 E|--2--2-2-2--2-2-2--2-2-2---2-2------------------------------|



 e|------------------------------------------------------------|
 B|------------------------------------------------------------|
 G|------------------------------------------------------------|
 D|-4----------------------------------------------------------|
 A|-2--2-2-2--2-2-2--2-2-2---2-2-2--2-2-2--2-2-2--2-2-2---2-2--|
 E|------------------------------0-----------------------------|





 e|------------------------------------------------------------|
 B|------------------------------------------------------------|
 G|------------------------------------------------------------|
 D|-----------------------------7------------------------------|
 A|-4---------------------------5--5-5-5--5-5-5--5-5-5--5-5----|
 E|-2--2-2-2--2-2-2--2-2-2--2-2--------------------------------|



 e|------------------------------------------------------------|
 B|------------------------------------------------------------|
 G|------------------------------------------------------------|
 D|-4---------------------------9------------------------------|
 A|-2--2-2-2--2-2-2--2-2-2--2-2-7--7-7-7--7-7-7--7-7-7--7-7----|
 E|------------------------------------------------------------|




 e|------------------------------------------------------------|
 B|------------------------------------------------------------|
 G|------------------------------------------------------------|
 D|------2---------7--7--6--11---------------------------------|
 A|-4----0---------5--5--4--9----------------------------------|
 E|-2--4---4--2--0---------------------------------------------|



  SOLO
  

 e|----10h14p10----10h14p10----10h14p10----10h14p10------------|
 B|-12----------12----------12----------12---------------------|
 G|------------------------------------------------------------|
 D|------------------------------------------------------------|
 A|------------------------------------------------------------|
 E|------------------------------------------------------------|



 e|----12h15p12----12h15p12----12h15p12-----12h15p12-----------|
 B|-14----------14----------14-----------14--------------------|
 G|------------------------------------------------------------|
 D|------------------------------------------------------------|
 A|------------------------------------------------------------|
 E|------------------------------------------------------------|




 e|----14h17p14-----14h17p14----14h17p14----14h17p14-----------|
 B|-15-----------15----------15----------15--------------------|
 G|------------------------------------------------------------|
 D|------------------------------------------------------------|
 A|------------------------------------------------------------|
 E|------------------------------------------------------------|



 e|---7h10p7---7h10p7------7-----------------------------------|
 B|-8--------8--------8-10---10-8-7-10-8-7------8-8-8-7h8p7----|
 G|-----------------------------------------7-9----------------|
 D|------------------------------------------------------------|
 A|------------------------------------------------------------|
 E|------------------------------------------------------------|




 e|--------------------------------7---------------------------|
 B|--------------------------10b12---10-7------7-10p7----------|
 G|-9-7-7(AL)\6-(AL)\4-(AL)2--------------9b11-----------------|
 D|------------------------------------------------------------|
 A|------------------------------------------------------------|
 E|------------------------------------------------------------|




 e|---------------------------10h14p10----10h14p10-------------|
 B|-9p7---7----------------12----------12----------------------|
 G|-----9---10-9p7---9p7-9-------------------------------------|
 D|----------------9----9--------------------------------------|
 A|------------------------------------------------------------|
 E|------------------------------------------------------------|





 e|----10h14p10----10h14p10------12h15p12----------12h15p12----|
 B|-12----------12-----------14---------------14---------------|
 G|------------------------------------------------------------|
 D|------------------------------------------------------------|
 A|------------------------------------------------------------|
 E|------------------------------------------------------------|







 e|-----12h15p12----12h15p12----14h17p14----14h17p14-----------|
 B|-14-----------14----------15----------15--------------------|
 G|------------------------------------------------------------|
 D|------------------------------------------------------------|
 A|------------------------------------------------------------|
 E|------------------------------------------------------------|





 e|----14h17p14----14h17p14---7h10p7----7h10p7------7----------|
 B|-15----------15----------8--------8---------8-10---10-8-7---|
 G|------------------------------------------------------------|
 D|------------------------------------------------------------|
 A|------------------------------------------------------------|
 E|------------------------------------------------------------|



 e|------------------------------------------------------------|
 B|10-9-8-7---8-8-8-7h8p7-----10b12r10----7----9-----12-9------|
 G|---------9-------------9-7---------7h9-9b11-11b13----11b13--|
 D|------------------------------------------------------------|
 A|------------------------------------------------------------|
 E|------------------------------------------------------------|



 INTERLUDIO




 e|------------------------------------------------------------|
 B|------------------------------------------------------------|
 G|------------------------------------------------------------|
 D|-----6-7--4---7-9---6-7--4--4-7-9-----2-------7-7-6---------|
 A|-4---4-5--2---5-7-4-4-5--2--2-5-7-4---0-------5-5-4---------|
 E|-2----------------2---------------2-4---4-2-0---------------|





	  

there isn't a video lesson for this song

request
Search Paypal
auto scroll beats size up size down change color hide chords drawings
tab show chords e-chords YouTube Clip e-chords hide all tabs e-chords go to top tab