Eterna

home > Eterna

Power for the fools Tab

Eterna

Difficulty: nolevelnolevel

by ToimVida

tuner correct add songbook print version text version save to e-mail
chordsukulelecavacokeyboardtabbassdrumsharmonicsflute Guitar Pro
chords

Power for the fools

  		Frade, Freitas, Caçoilo 
Frade 
 
 
 
                                                          
D#||----------------------------|-----------------------| 
A#||----------------------------|--------------------7--| 
F#||--9/---x--16--x--x--12/-14--|--14------------7/9----| 
C#||----------------------------|-----------------------| 
G#||--7/---x--14--x--x--10/-12--|--12~------------------| 
D#||----------------------------|-----------------------| 
 
 
                                                                             
------------------------|---------------------|----------------------------| 
--8----8--7----7--------|---------------------|----------------------------| 
------------------7--7--|--9r---9r---9~-------|--9/---x--16--x--x--12/-14--| 
------------------------|---------------------|----------------------------| 
------------------------|---------------------|--7/---x--14--x--x--10/-12--| 
------------------------|---------------------|----------------------------| 
 
 
                                                           
--------------------|--8h5---5-8h5---5-10h7---7-10h7---7-| 
--------------------|------7-------7--------8--------8---| 
--14----------------|------------------------------------| 
--------------------|------------------------------------| 
--12~---------------|------------------------------------| 
--------------------|------------------------------------| 
 
 
                                                             
--12h8----8-12h8----8-12----------|------------------------| 
-------10--------10---------15r---|--13------15b-----15----| 
----------------------------------|------------------------| 
----------------------------------|------------------------| 
----------------------------------|------------------------| 
----------------------------------|------------------------| 
 
 
                                                                              
--------------------|--------------------------------|----------------------| 
----12~-------------|--------------------------------|----------------------| 
--------------------|--14--14--14--14----12--14--16--|--14h16~--------------| 
--------------------|--------------------------------|----------------------| 
--------------------|--------------------------------|----------------------| 
--------------------|--------------------------------|----------------------| 
 
 
                                                                     
--------------------------------|----------------------------------| 
--------------------------------|----------------------------------| 
--12--12--12--11--11--11--9--9--|--14--14--12--12--11--11----------| 
--------------------------------|--------------------------12--12--| 
--------------------------------|----------------------------------| 
--------------------------------|----------------------------------| 
 
 
                                                                         
--------------------|--------------------------------------------------| 
--------------------|--------------------------------------------------| 
--------------------|--16h14h12h14-17h14-16h14h12h14-16h14h12h14-19h14-| 
--14~---------------|--------------------------------------------------| 
--------------------|--------------------------------------------------| 
--------------------|--------------------------------------------------| 
 
 
                                                                         
--------------------------------------------------|--------------------| 
--------------------------------------------------|--------------------| 
--17h14h12h14-16h14h12h14-17h14h12h14-19h14h12h14-|--21----------------| 
--------------------------------------------------|--------------------| 
--------------------------------------------------|--------------------| 
--------------------------------------------------|--------------------| 
 
 
                                                               
------------------------------|------------------------------| 
------------------------------|------------------------------| 
--9---------------------------|--9---------------------------| 
--9---------------------------|--9---------------------------| 
--7--7-7-7-7-7--7--7-7-7-7-7--|--7--7-7-7-7-7--7--7-7-7-7-7--| 
------------------------------|------------------------------| 
 
 
                                                               
------------------------------|------------------------------| 
------------------------------|------------------------------| 
--7---------------------------|--7---------------------------| 
--7---------------------------|--7---------------------------| 
--5--5-5-5-5-5--5--5-5-5-5-5--|--5--5-5-5-5-5--5--5-5-5-5-5--| 
------------------------------|------------------------------| 
 
 
                                                            
-------------------|------------------|--2----------------| 
-------------------|------------------|--2----------------| 
--5----------------|------------------|--4----------------| 
--5----------------|------------------|--4----------------| 
--3----------------|------------------|--2----------------| 
-------------------|------------------|-------------------| 
 
 
                                                           
--------------------------|------------------------------| 
--------------------------|------------------------------| 
--------------------------|--9---------------------------| 
--2h-0--------0-----------|--9---------------------------| 
--------3h-2-----3h-2-----|--7--7-7-7-7-7--7--7-7-7-7-7--| 
-----------------------3~-|------------------------------| 
 
 
                                                               
------------------------------|------------------------------| 
------------------------------|------------------------------| 
--9---------------------------|--7---------------------------| 
--9---------------------------|--7---------------------------| 
--7--7-7-7-7-7--7--7-7-7-7-7--|--5--5-5-5-5-5--5--5-5-5-5-5--| 
------------------------------|------------------------------| 
 
 
                                                                
------------------------------|-------------------------------| 
------------------------------|-------------------------------| 
--7---------------------------|--5----------5----------5------| 
--7---------------------------|--5--5-5-5-5-5--5-5-5-5-5--5-5-| 
--5--5-5-5-5-5--5--5-5-5-5-5--|-------------------------------| 
------------------------------|-------------------------------| 
 
 
                                                                 
-------------------------------|-------------------------------| 
-------------------------------|-------------------------------| 
--5----------5----------5------|--7------9------11------9------| 
--5--5-5-5-5-5--5-5-5-5-5--5-5-|--7--7-7-7--7-7-7---7-7-7--7-7-| 
-------------------------------|-------------------------------| 
-------------------------------|-------------------------------| 
 
 
                                                                           
--------------------------------------|----------------------------------| 
--------------------------------------|----------------------------------| 
--14--------12--------11--11-11-12/---|----------------------------------| 
--11--11-11-11--11-11-----------------|--9h7-7-7-9h7-7-7-7h5-5-5-7h5-5-5-| 
--------------------------------------|----------------------------------| 
--------------------------------------|----------------------------------| 
 
 
                                                                             
-------------------------------|----------------------|--------------------| 
-------------------------------|--12--------10--------|--8--------7--------| 
-------------------------------|--11--------9---------|--7--------6--------| 
--5h4-4-4-5h4-4-4-4h2-2-2-2----|--9---------7---------|--5--------4--------| 
-------------------------------|----------------------|--------------------| 
-------------------------------|----------------------|--------------------| 
 
 
                                                                     
------------------------|------------------|-----------------------| 
---------12----x--10----|------------------|--8----8--7------------| 
--9------11----x--9-----|------------------|--7----7--6----7--9----| 
--9------9-----x--7-----|------------------|--5----5--4----7--9----| 
--7---------------------|------------------|---------------5--7----| 
------------------------|------------------|-----------------------| 
 
 
                                                                                
----------------------------------|------------------------|------------------| 
----------------------------------|---------12----x--10----|------------------| 
----------------------------------|--9------11----x--9-----|------------------| 
----------------------------------|--9------9-----x--7-----|------------------| 
--7-7-7-7-7-7-7-7-7-7-7-7-7-7-7-7-|--7---------------------|------------------| 
----------------------------------|------------------------|------------------| 
 
 
                                                                             
---------------------|------------------|----------------------------------| 
---------------------|------------------|----------------------------------| 
---------7------9----|------------------|--5-------------------------------| 
--9------7------9----|------------------|--5-------------------------------| 
--9------5------7----|------------------|--3-3-3-3-3-3-3-3-3-3-3-3-3-3-3-3-| 
---------------------|------------------|----------------------------------| 
 
 
                                                                       
----------------------------------|----------------------------------| 
----------------------------------|----------------------------------| 
----------------------------------|----------------------------------| 
--5-------------------------------|--7-------------------------------| 
--5-------------------------------|--7-------------------------------| 
--3-3-3-3-3-3-3-3-3-3-3-3-3-3-3-3-|--5-5-5-5-5-5-5-5-5-5-5-5-5-5-5-5-| 
 
 
                                                        
-------------------|----------------------------------| 
-------------------|----------------------------------| 
-------------------|----------------------------------| 
--9----------------|--5-------------------------------| 
--9----------------|--5-------------------------------| 
--7----------------|--3-3-3-3-3-3-3-3-3-3-3-3-3-3-3-3-| 
 
 
                                                                           
----------------------------------|-------------------|------------------| 
----------------------------------|-------------------|------------------| 
----------------------------------|-------------------|------------------| 
--7-------------------------------|--9----------------|------------------| 
--7-------------------------------|--9----------------|------------------| 
--5-5-5-5-5-5-5-5-5-5-5-5-5-5-5-5-|--7----------------|------------------| 
 
 
                                                                               
----------------------------|-----------------------|------------------------| 
----------------------------|--------------------7--|--8----8--7----7--------| 
--9/---x--16--x--x--12/-14--|--14------------7/9----|------------------7--7--| 
----------------------------|-----------------------|------------------------| 
--7/---x--14--x--x--10/-12--|--12~------------------|------------------------| 
----------------------------|-----------------------|------------------------| 
 
 
                                                                         
---------------------|----------------------------|--------------------| 
---------------------|----------------------------|--------------------| 
--9r---9r---9~-------|--9/---x--16--x--x--12/-14--|--14----------------| 
---------------------|----------------------------|--------------------| 
---------------------|--7/---x--14--x--x--10/-12--|--12~---------------| 
---------------------|----------------------------|--------------------| 
 
 
                                                           
--------------5-7-8~-------|---------------7-8-10--------| 
--------5-7-8--------------|--------7-8-10---------------| 
--4-5-7--------------------|--5-7-9----------------------| 
---------------------------|-----------------------------| 
---------------------------|-----------------------------| 
---------------------------|-----------------------------| 
 
 
                                                               
------------------------------|------------------------------| 
------------------------------|------------------------------| 
--9---------------------------|--9---------------------------| 
--9---------------------------|--9---------------------------| 
--7--7-7-7-7-7--7--7-7-7-7-7--|--7--7-7-7-7-7--7--7-7-7-7-7--| 
------------------------------|------------------------------| 
 
 
                                                               
------------------------------|------------------------------| 
------------------------------|------------------------------| 
--7---------------------------|--7---------------------------| 
--7---------------------------|--7---------------------------| 
--5--5-5-5-5-5--5--5-5-5-5-5--|--5--5-5-5-5-5--5--5-5-5-5-5--| 
------------------------------|------------------------------| 
 
 
                                                            
-------------------|------------------|--2----------------| 
-------------------|------------------|--2----------------| 
--5----------------|------------------|--4----------------| 
--5----------------|------------------|--4----------------| 
--3----------------|------------------|--2----------------| 
-------------------|------------------|-------------------| 
 
 
                                                                   
----------------------------------|------------------------------| 
----------------------------------|------------------------------| 
----------------------------------|--9---------------------------| 
----------------------------------|--9---------------------------| 
--7--5--3--5--3-----3--------6~---|--7--7-7-7-7-7--7--7-7-7-7-7--| 
-----------------7-----7--5-------|--7---------------------------| 
 
 
                                                                   
------------------------------|----------------------------------| 
------------------------------|----------------------------------| 
--9---------------------------|----------------------------------| 
--9---------------------------|----------------------------------| 
--7--7-7-7-7-7--7--7-7-7-7-7--|--5-5-5-5-7-7-7-7-9-9-9-9-7-7-7-7-| 
------------------------------|----------------------------------| 
 
 
                                                                 
-------------------------------|-------------------------------| 
-------------------------------|-------------------------------| 
-------------------------------|--5----------5----------5------| 
-------------------------------|--5--5-5-5-5-5--5-5-5-5-5--5-5-| 
--5-5-5-5-7-7-7-7-9-9-9-9-7~---|-------------------------------| 
-------------------------------|-------------------------------| 
 
 
                                                                 
-------------------------------|-------------------------------| 
-------------------------------|-------------------------------| 
--5----------5----------5------|--7------9------11------9------| 
--5--5-5-5-5-5--5-5-5-5-5--5-5-|--7--7-7-7--7-7-7---7-7-7--7-7-| 
-------------------------------|-------------------------------| 
-------------------------------|-------------------------------| 
 
 
                                                                           
--------------------------------------|----------------------------------| 
--------------------------------------|----------------------------------| 
--14--------12--------11--11-11-12/---|----------------------------------| 
--11--11-11-11--11-11-----------------|--9h7-7-7-9h7-7-7-7h5-5-5-7h5-5-5-| 
--------------------------------------|----------------------------------| 
--------------------------------------|----------------------------------| 
 
 
                                                                             
-------------------------------|----------------------|--------------------| 
-------------------------------|--12--------10--------|--8--------7--------| 
-------------------------------|--11--------9---------|--7--------6--------| 
--5h4-4-4-5h4-4-4-4h2-2-2-2----|--9---------7---------|--5--------4--------| 
-------------------------------|----------------------|--------------------| 
-------------------------------|----------------------|--------------------| 
 
 
                                                                     
------------------------|------------------|-----------------------| 
---------12----x--10----|------------------|--8----8--7------------| 
--9------11----x--9-----|------------------|--7----7--6----7--9----| 
--9------9-----x--7-----|------------------|--5----5--4----7--9----| 
--7---------------------|------------------|---------------5--7----| 
------------------------|------------------|-----------------------| 
 
 
                                                                                
----------------------------------|------------------------|------------------| 
----------------------------------|---------12----x--10----|------------------| 
----------------------------------|--9------11----x--9-----|------------------| 
----------------------------------|--9------9-----x--7-----|------------------| 
--7-7-7-7-7-7-7-7-7-7-7-7-7-7-7-7-|--7---------------------|------------------| 
----------------------------------|------------------------|------------------| 
 
 
                                                                             
---------------------|------------------|----------------------------------| 
---------------------|------------------|----------------------------------| 
---------7------9----|------------------|--5-------------------------------| 
--9------7------9----|------------------|--5-------------------------------| 
--9------5------7----|------------------|--3-3-3-3-3-3-3-3-3-3-3-3-3-3-3-3-| 
---------------------|------------------|----------------------------------| 
 
 
                                                                       
----------------------------------|----------------------------------| 
----------------------------------|----------------------------------| 
----------------------------------|----------------------------------| 
--5-------------------------------|--7-------------------------------| 
--5-------------------------------|--7-------------------------------| 
--3-3-3-3-3-3-3-3-3-3-3-3-3-3-3-3-|--5-5-5-5-5-5-5-5-5-5-5-5-5-5-5-5-| 
 
 
                                                        
-------------------|----------------------------------| 
-------------------|----------------------------------| 
-------------------|----------------------------------| 
--9----------------|--5-------------------------------| 
--9----------------|--5-------------------------------| 
--7----------------|--3-3-3-3-3-3-3-3-3-3-3-3-3-3-3-3-| 
 
 
                                                                           
----------------------------------|-------------------|------------------| 
----------------------------------|-------------------|------------------| 
----------------------------------|-------------------|------------------| 
--7-------------------------------|--9----------------|------------------| 
--7-------------------------------|--9----------------|------------------| 
--5-5-5-5-5-5-5-5-5-5-5-5-5-5-5-5-|--7----------------|------------------| 
 
 
                                                                       
----------------------------------|----------------------------------| 
----------------------------------|----------------------------------| 
--5-------------------------------|--7-------------------------------| 
--5-------------------------------|--7-------------------------------| 
--3-3-3-3-3-3-3-3-3-3-3-3-3-3-3-3-|--5-5-5-5-5-5-5-5-5-5-5-5-5-5-5-5-| 
----------------------------------|----------------------------------| 
 
 
                                                                           
-------------------|------------------|----------------------------------| 
-------------------|------------------|----------------------------------| 
--9----------------|------------------|--2h0-0-0-4h0-0-0-5h0-0-0-7h0-0-0-| 
--9----------------|------------------|----------------------------------| 
--7----------------|------------------|----------------------------------| 
-------------------|------------------|----------------------------------| 
 
 
                                                        
----------------------|-------------------------------| 
-------7--8--7~-------|-------------------------------| 
--8-------------------|--2h0-0-0-4h0-0-0-5h0-0-0-7~---| 
----------------------|-------------------------------| 
----------------------|-------------------------------| 
----------------------|-------------------------------| 
 
 
                                                                
---------------------------|----------------------------------| 
---------------------------|----------------------------------| 
--8h7h5--------------------|--2h0-0-0-4h0-0-0-5h0-0-0-7h0-0-0-| 
--------8-7-5-4-5-7--------|----------------------------------| 
---------------------------|----------------------------------| 
---------------------------|----------------------------------| 
 
 
                                                        
----------------------|-------------------------------| 
-------7--8--7~-------|-------------------------------| 
--8-------------------|--2h0-0-0-4h0-0-0-5h0-0-0-7~---| 
----------------------|-------------------------------| 
----------------------|-------------------------------| 
----------------------|-------------------------------| 
 
 
                                                                
----------------------------------|---------------------------| 
----------------------------------|---------------------------| 
--8h7h5---------------------------|---------------------------| 
--------8-7-5-4-5-7-5-4-----------|---------------------------| 
------------------------6-5-3-3-5-|--6-5-3--------------------| 
----------------------------------|--------6-5-3-2-5-3~-------| 
 
 
                                                                               
--------------------------------------|--------------------------------------| 
--------------------------------------|--------------------------------------| 
--------------------12h7h5h7-11h7h5h7-|--------------------14h9h7h9-13h9h7h9-| 
--12h7h5h7-10h7h5h7-------------------|--14h9h7h9-12h9h7h9-------------------| 
--------------------------------------|--------------------------------------| 
--------------------------------------|--------------------------------------| 
 
 
                                                
----------------------------------------------| 
----------------------------------------------| 
------------------------16h11h9h11-15h11h9h11-| 
--16h11h9h11-14h11h9h11-----------------------| 
----------------------------------------------| 
----------------------------------------------| 
 
 
                                                    
--------------------------------------------------| 
--------------------------------------------------| 
--------------------------17h12h10h12-16h12h10h12-| 
--17h12h10h12-15h12h10h12-------------------------| 
--------------------------------------------------| 
--------------------------------------------------| 
 
 
                                                    
--------------------------------------------------| 
--------------------------------------------------| 
--------------------------------------------------| 
--17h12h10h12-15h12h10h12-------------------------| 
--------------------------17h12h10h12-15h12h10h12-| 
--------------------------------------------------| 
 
 
                                                                       
-----------------------10h12h15h17h15h12h10-|------------------------| 
--------------------------------------------|--15b-----15b-15~-------| 
--------------11h12h14----------------------|------------------------| 
--------------------------------------------|------------------------| 
--------10h12-------------------------------|------------------------| 
--12~---------------------------------------|------------------------| 
 
 
                                                         
----------12----14----15----|--12-14----15-------------| 
----------------------------|----------------17b-------| 
----------------------------|--------------------------| 
----------------------------|--------------------------| 
----------------------------|--------------------------| 
----------------------------|--------------------------| 
 
 
                                                                             
------------------12-15-|--17h15h12h15-19h15h12h15-17h15h12-------------15-| 
----------17~-----------|-----------------------------------15-17h15h12----| 
------------------------|--------------------------------------------------| 
------------------------|--------------------------------------------------| 
------------------------|--------------------------------------------------| 
------------------------|--------------------------------------------------| 
 
 
                                                
--17h15h12------------------------------------| 
-----------15h17h15h12------------------------| 
-----------------------15h17h15h14h12h14/-12--| 
----------------------------------------------| 
----------------------------------------------| 
----------------------------------------------| 
 
 
                                                             
--------------------------------------|--------------------| 
--------------------------------------|--------------------| 
--11----------------------------------|--------------------| 
--------12----------------------------|--------------------| 
--------------12----10----12----14----|--12~---------------| 
--------------------------------------|--------------------| 
 
 
                                                          
--------------------------|-----------------------------| 
--------------------------|-----------------------------| 
--2--5--4--2--7--5--4--9--|--7--5--11--9--7--12--11--9--| 
--------------------------|-----------------------------| 
--------------------------|-----------------------------| 
--------------------------|-----------------------------| 
 
 
                                                   
--------------------------|----------------------| 
--8--7--------------------|----------------------| 
--------9--7--9/-11--9~---|----------------------| 
--------------------------|----------------------| 
--------------------------|----------------------| 
--------------------------|----------------12h15-| 
 
 
                                                    
--------------------------------------------------| 
--------------------------------------------------| 
--------------------------------------------------| 
--------------------------------12h14h16h14h12h14-| 
--------------12h15h17h15h12h15-------------------| 
--17h15h12h15-------------------------------------| 
 
 
                                                    
--------------------------------------12h15h17h15h| 
--------------------12h15h17h15h12h15-------------| 
--12h14h16h14h12h14-------------------------------| 
--------------------------------------------------| 
--------------------------------------------------| 
--------------------------------------------------| 
 
 
                                                                   
--12h15h12h15h19h15h12h15h12h15h17h15h12~---|--------------------| 
--------------------------------------------|--15~---------------| 
--------------------------------------------|--------------------| 
--------------------------------------------|--------------------| 
--------------------------------------------|--------------------| 
--------------------------------------------|--------------------| 
 
 
                                                                        
----------------------|------------------------|----------------------| 
--20--------19--------|--17~-------------17-19-|--20--------19--------| 
----------------------|------------------------|----------------------| 
----------------------|------------------------|----------------------| 
----------------------|------------------------|----------------------| 
----------------------|------------------------|----------------------| 
 
 
                                                                          
----------------17------|----------------------|------------------------| 
--17~---------------17--|--20--------19--------|--17~-----------19--17--| 
------------------------|----------------------|------------------------| 
------------------------|----------------------|------------------------| 
------------------------|----------------------|------------------------| 
------------------------|----------------------|------------------------| 
 
 
                                                                    
--------------------|----------------------|----------------------| 
--16~---------------|--17--------19--------|--20--------19--------| 
--------------------|----------------------|----------------------| 
--------------------|----------------------|----------------------| 
--------------------|----------------------|----------------------| 
--------------------|----------------------|----------------------| 
 
 
                                                                          
------------------------|----------------------|----------------17------| 
--17~-------------17-19-|--20--------19--------|--17~---------------17--| 
------------------------|----------------------|------------------------| 
------------------------|----------------------|------------------------| 
------------------------|----------------------|------------------------| 
------------------------|----------------------|------------------------| 
 
 
                                                                      
----------------------|------------------------|--------------------| 
--20--------19--------|--17~-----------19--17--|--16~---------------| 
----------------------|------------------------|--------------------| 
----------------------|------------------------|--------------------| 
----------------------|------------------------|--------------------| 
----------------------|------------------------|--------------------| 
 
 
                                                           
----------------------|----------------------------------| 
--17~-------19~-------|----------------------------------| 
----------------------|----------------------------------| 
----------------------|--9h7-7-7-9h7-7-7-7h5-5-5-7h5-5-5-| 
----------------------|----------------------------------| 
----------------------|----------------------------------| 
 
 
                                                                             
-------------------------------|----------------------|--------------------| 
-------------------------------|--12--------10--------|--8--------7--------| 
-------------------------------|--11--------9---------|--7--------6--------| 
--5h4-4-4-5h4-4-4-4h2-2-2-2----|--9---------7---------|--5--------4--------| 
-------------------------------|----------------------|--------------------| 
-------------------------------|----------------------|--------------------| 
 
 
                                                                       
|-------------------------|------------------|-----------------------| 
|----------12----x--10----|------------------|--8----8--7------------| 
|*--9------11----x--9-----|------------------|--7----7--6----7--9----| 
|*--9------9-----x--7-----|------------------|--5----5--4----7--9----| 
|---7---------------------|------------------|---------------5--7----| 
|-------------------------|------------------|-----------------------| 
 
 
                                                                                
----------------------------------|------------------------|------------------| 
----------------------------------|---------12----x--10----|------------------| 
----------------------------------|--9------11----x--9-----|------------------| 
----------------------------------|--9------9-----x--7-----|------------------| 
--7-7-7-7-7-7-7-7-7-7-7-7-7-7-7-7-|--7---------------------|------------------| 
----------------------------------|------------------------|------------------| 
 
 
                                                                             
---------------------|------------------|----------------------------------| 
---------------------|------------------|----------------------------------| 
---------7------9----|------------------|--5-------------------------------| 
--9------7------9----|------------------|--5-------------------------------| 
--9------5------7----|------------------|--3-3-3-3-3-3-3-3-3-3-3-3-3-3-3-3-| 
---------------------|------------------|----------------------------------| 
 
 
                                                                       
----------------------------------|----------------------------------| 
----------------------------------|----------------------------------| 
----------------------------------|----------------------------------| 
--5-------------------------------|--7-------------------------------| 
--5-------------------------------|--7-------------------------------| 
--3-3-3-3-3-3-3-3-3-3-3-3-3-3-3-3-|--5-5-5-5-5-5-5-5-5-5-5-5-5-5-5-5-| 
 
 
                                                        
-------------------|----------------------------------| 
-------------------|----------------------------------| 
-------------------|----------------------------------| 
--9----------------|--5-------------------------------| 
--9----------------|--5-------------------------------| 
--7----------------|--3-3-3-3-3-3-3-3-3-3-3-3-3-3-3-3-| 
 
 
                                                                             
----------------------------------|-------------------|-------------------|| 
----------------------------------|-------------------|-------------------|| 
----------------------------------|-------------------|------------------*|| 
--7-------------------------------|--9----------------|------------------*|| 
--7-------------------------------|--9----------------|-------------------|| 
--5-5-5-5-5-5-5-5-5-5-5-5-5-5-5-5-|--7----------------|-------------------|| 
 
 
                                                                       
----------------------------------|----------------------------------| 
----------------------------------|----------------------------------| 
--5-------------------------------|--7-------------------------------| 
--5-------------------------------|--7-------------------------------| 
--3-3-3-3-3-3-3-3-3-3-3-3-3-3-3-3-|--5-5-5-5-5-5-5-5-5-5-5-5-5-5-5-5-| 
----------------------------------|----------------------------------| 
 
 
                                                                                
-------------------|------------------|-------------------|-------------------| 
-------------------|------------------|-------------------|-------------------| 
--9----------------|------------------|--5----------------|--7----------------| 
--9----------------|------------------|--5----------------|--7----------------| 
--7----------------|------------------|--3----------------|--5----------------| 
-------------------|------------------|-------------------|-------------------| 
 
 
                      
-------------------|| 
-------------------|| 
--9~---------------|| 
--9----------------|| 
--7----------------|| 
--0----------------|| 
	  

Search Paypal
auto scroll beats size up size down change color hide chords drawings
tab show chords e-chords YouTube Clip e-chords hide all tabs e-chords go to top tab