Escape The Fate

home > Escape The Fate

Reverse This Curse Tab

Escape The Fate

Difficulty: IntermediateIntermediate

by fboy

tuner correct add songbook print version text version save to e-mail
chordsukulelecavacokeyboardtabbassdrumsharmonicsflute Guitar Pro
chords

Reverse This Curse

  		Guitar 1- C G C F A D 
Guitar 2- C G C F A D 

Guitar 1- Intro 

D ----------------------------------------------------------------| 
A ----------------------------------------------------------------| 
F ----------------------------------------------------------------| 
C -7--7-7-7-7-7-7-7-7-7-7-7-7-7-7--6--6-6-6-6-6-6-6-6-6-6-6-6-6-6-| 
G -5--5-5-5-5-5-5-5-5-5-5-5-5-5-5--4--4-4-4-4-4-4-4-4-4-4-4-4-4-4-| 
C ----------------------------------------------------------------| 
      . . . . . . . . . . . . . .     . . . . . . . . . . . . . . 

D ----------------------------------------------------------------| 
A ----------------------------------------------------------------| 
F ----------------------------------------------------------------| 
C -7--7-7-7-7-7-7-7-7-7-7-7-7-7-7--6--6-6-6-6-6-6-6-6-6-6-6-6-6-6-| 
G -5--5-5-5-5-5-5-5-5-5-5-5-5-5-5--4--4-4-4-4-4-4-4-4-4-4-4-4-4-4-| 
C ----------------------------------------------------------------| 
      . . . . . . . . . . . . . .     . . . . . . . . . . . . . . 

Guitar 2- Intro 
 ----------------------------------------------------------------| 
 ------------------------------------------15--------------------| 
 ----------------------------------------------------------------| 
 ----------------------------------------12--12-11-8-4-8---------| 
 ----------------------------------------------------------------| 
 ----------------------------------------------------------------| 

Guitar 1- Verse           (10s not 1 and 0) (= play second time only 
D --------------------------------------------------------------------| 
A --------------------------------------------------------------------| 
F --------------------------------------------------------------------| 
C -7777777777777777-3333333333333333-10101010101010101010101010101010-| 
G -7777777777777777-3333333333333333-10101010101010101010101010101010-| 
C -7777777777777777-3333333333333333-10101010101010101010101010101010-| 

D -------------------------------------------------------------------| 
A -------------------------------------------------------------------| 
F -------------------------------------------------------------------| 
C 9999999-2222-5555-(7)----------------------------------------------| 
G 9999999-2222-5555-(7)----------------------------------------------| 
C 9999999-2222-5555-(7)----------------------------------------------| 


Guitar 2- Verse ( another way to play 2 ) 
                                      x 
                                      0 
Eb ----------------------------------------------------------------| 
Bb ----------------------------------------------------------------| 
Gb -2222-------4444-555-------------------9999-10101010------------| 
Db -xxxx(7777)-xxxx-xxx-----3333-5555-777-xxxx-x-x-x-x-------------| 
Ab -0000(xxxx)-2222-333-----xxxx-xxxx-xxx-7777-8-8-8-8-------------| 
Db -----(5555)--------------1111-3333-555--------------------------| 

Guitar 2- Fill 

Eb ------------------| 
Bb ------------------| 
Gb ------------------| 
Db --9----10----12---| 
Ab ---7-----7--------| 
Db -9---10----11--12-| 

Guitar 1+2- Verse2 

D ----------------------------------------------------------------------| 
A ----------------------------------------------------------------------| 
F ----------------------------------------------------------------------| 
C 7777777777777777-0000000000000000-22222222-5555-----------------------| 
G 7777777777777777-0000000000000000-22222222-5555--55332200-------------| 
C 7777777777777777-0000000000000000-22222222-5555----------5533~--------| 
  ................ ................ ........ .... 

Guitar 1- After Verse Thing 

D ----------------------------------------------------------------------| 
A ----------------------------------------------------------------------| 
F -1212121212121212---12121212121212---14141414141414---17171717171717--| 
C -x-x-x-x-x-x-x-x--0-x-x-x-x-x-x-x--0-x-x-x-x-x-x-x--0-x-x-x-x-x-x-x---| 
G -1010101010101010-0-10101010101010-0-14141414141414-0-15151515151515--| 
C ------------------0----------------0----------------0-----------------| 
                    .                .                . 
D -----------------------------------------------------------------------| 
A -----------------------------------------------------------------------| 
F -1212121212121212---12121212121212-------------------------------------| 
C -x-x-x-x-x-x-x-x--0-x-x-x-x-x-x-x--22222222-3-0------------------------| 
G -1010101010101010-0-10101010101010-22222222-3-0------------------------| 
C ------------------0----------------22222222-3-0------------------------| 
                                     ........   . 
Guitar 1- Chorus 
D -------------------------------------------------------------| 
A -------------------------------------------------------------| 
F -------------------------------------------------------------| 
C -77777777-33333333-1010101010101010-9999-22-55---------------| 
G -77777777-33333333-1010101010101010-9999-22-55---------------| 
C -77777777-33333333-1010101010101010-9999-22-55---------------| 

Guitar 2- Chorus 
Eb -------------------------------------------------------------| 
Bb -------------------------------------------------------------| 
Gb ------------------5\7\9\10/55555577--------------------------| 
Db ------------------x\x\x\x-/xxxxxxxx--------------------------| 
Ab ------------------3\5\7\8-/33333355--------------------------| 
Db -------------------------------------------------------------| 

Eb -------------------------------------------------------------| 
Bb -------------------------------------------------------------| 
Gb ------------------14-9-7-55\14-9-7--5\7\9\10/55555577--------| 
Db ------------------x--x-x-xx\x--x-x--x\x\x\x-/xxxxxxxx--------| 
Ab ------------------12-7-5-33\12-7-5--3\5\7\8-/33333355--------| 
Db -------------------------------------------------------------| 

Guitar 1 or 2- After Chorus Fill Thing 
Eb -------------------------------------------------------------| 
Bb -------------------------------------------------------------| 
Gb -5555555555555555--------------------------------------------| 
Db -xxxxxxxxxxxxxxxx--------------------------------------------| 
Ab -3333333333333333--------------------------------------------| 
Db -------------------------------------------------------------| 
    ................ 

Guitar 2-(first part of the)Breakdown or Bridge (first time is some weird phaser but clean) 
                              (second time is distortion with phaser) 
Eb --------------------------------------------------------------| 
Bb --------------------------------------------------------------| 
Gb --------------------------------------------------------------| 
Db -77777777-1010101010101010-99999999-12121212-1010-99----------| 
Ab -xxxxxxxx-x-x-x-x-x-x-x-x--xxxxxxxx-x-x-x-x--x-x--xx----------| 
Db -55555555-8-8-8-8-8-8-8-8--77777777-10101010-8-8--77----------| 

Guitar 1- (second part of the)Breakdown or Bridge 
(I had a hard time hearing this one) 
D ----------------------------------------------------------------| 
A ----------------------------------------------------------------| 
F ----------------------------------------------------------------| 
C -33333333-55555555-77777777-000000-22---------------------------| 
G -33333333-55555555-77777777-000000-22---------------------------| 
C -33333333-55555555-77777777-000000-22---------------------------| 

Guitar 2- (second part of the) Breakdown or Bridge()=dont play every first time, i dont  
how many times you play it. 
Eb -----------------------------------------------------------------| 
Bb -----------------------------------------------------------------| 
Gb -55555555-77777777-99999999-(77777777)5555-7777------------------| 
Db -xxxxxxxx-xxxxxxxx-xxxxxxxx-(xxxxxxxx)xxxx-xxxx 
Ab -33333333-55555555-77777777-(55555555)3333-5555------------------| 
Db -----------------------------------------------------------------| 

Theres a third guitar in here somewhere that I cant hear too well. 

Guitar 1- Modified Chorus()=dont play until second time 
D ------------------------------------------------------------------------| 
A ------------------------------------------------------------------------| 
F ------------------------------------------------------------------------| 
C 77---33---(77/)1010101010101010-9999-22-55------------------------------| 
G 77---33---(77/)1010101010101010-9999-22-55------------------------------| 
C 77---33---(77/)1010101010101010-9999-22-55------------------------------| 

Guitar 2- Modified Chorus(same thing as normal) 
Eb -------------------------------------------------------------| 
Bb -------------------------------------------------------------| 
Gb ------------------5\7\9\10/55555577--------------------------| 
Db ------------------x\x\x\x-/xxxxxxxx--------------------------| 
Ab ------------------3\5\7\8-/33333355--------------------------| 
Db -------------------------------------------------------------| 

Eb -------------------------------------------------------------| 
Bb -------------------------------------------------------------| 
Gb ------------------14-9-7-55\14-9-7--5\7\9\10/55555577--------| 
Db ------------------x--x-x-xx\x--x-x--x\x\x\x-/xxxxxxxx--------| 
Ab ------------------12-7-5-33\12-7-5--3\5\7\8-/33333355--------| 
Db -------------------------------------------------------------| 

Guitar 1- Chorus 
D -------------------------------------------------------------| 
A -------------------------------------------------------------| 
F -------------------------------------------------------------| 
C -77777777-33333333-1010101010101010-9999-22-55---------------| 
G -77777777-33333333-1010101010101010-9999-22-55---------------| 
C -77777777-33333333-1010101010101010-9999-22-55---------------| 

Guitar 2- Chorus 
Eb -------------------------------------------------------------| 
Bb -------------------------------------------------------------| 
Gb ------------------5\7\9\10/55555577--------------------------| 
Db ------------------x\x\x\x-/xxxxxxxx--------------------------| 
Ab ------------------3\5\7\8-/33333355--------------------------| 
Db -------------------------------------------------------------| 

Eb -------------------------------------------------------------| 
Bb -------------------------------------------------------------| 
Gb ------------------14-9-7-55\14-9-7--5\7\9\10/55555577--------| 
Db ------------------x--x-x-xx\x--x-x--x\x\x\x-/xxxxxxxx--------| 
Ab ------------------12-7-5-33\12-7-5--3\5\7\8-/33333355--------| 
Db -------------------------------------------------------------| 

Guitar 1- Outro (light distortion) ()=play second time only instead of the riff before  
do you know what I mean? 
D ----------------------------------------------------------------| 
A ----------------------------------------------------------------| 
F ----------------------------------------------------------------| 
C -7--7-7-7-3--3-3-3-5--5-5-5-6(10--10-10-10-7)-2-55-(7~)---------| 
G -7--7-7-7-3--3-3-3-5--5-5-5-6(10--10-10-10-7)-2-55-(7~)---------| 
C -7--7-7-7-3--3-3-3-5--5-5-5-6(10--10-10-10-7)-2-55-(7~)---------| 
	  

Search Paypal
auto scroll beats size up size down change color hide chords drawings
tab show chords e-chords YouTube Clip e-chords hide all tabs e-chords go to top tab