Eruca Sativa

Queloquepasa

Eruca Sativa

tabs

by  ANG-LETRA

save to print version add songbook text version e-mail correct tuner
chordsukulelecavacokeyboardtabbassdrumsharmonicaflute Guitar Pro
close

there isn't a video lesson for this song

chords

Queloquepasa

	  		
Intro 
e|--------------------------------------| 
B|--------------------------------------| 
G|--------------------------------------| 
D|--0--3--5-0--3--5-0--3--5-6--6--6-----| x2 
A|--0--3--5-0--3--5-0--3--5-6--6--6-----| 
D|--0--3--5-0--3--5-0--3--5-6--6--6-----| 

   PM................................... 
e|--------------------------------------| 
B|--------------------------------------| 
G|--------------------------------------| 
D|--0--3--5-0--3--5-0--3--5-6--6--6-----| x2 
A|--0--3--5-0--3--5-0--3--5-6--6--6-----| 
D|--0--3--5-0--3--5-0--3--5-6--6--6-----| 

Verse 
N.C. 

Chorus 
e|--------------------------------------| 
B|--------------------------------------| 
G|--------------------------------------| 
D|--0--3--5-0--3--5-0--3--5-6--6--6-----| x2 
A|--0--3--5-0--3--5-0--3--5-6--6--6-----| 
D|--0--3--5-0--3--5-0--3--5-6--6--6-----| 

Verse 
N.C. 

Chorus 
e|--------------------------------------| 
B|--------------------------------------| 
G|--------------------------------------| 
D|--0--3--5-0--3--5-0--3--5-6--6--6-----| x2 
A|--0--3--5-0--3--5-0--3--5-6--6--6-----| 
D|--0--3--5-0--3--5-0--3--5-6--6--6-----| 

Verse 
N.C. 

Bridge 
e|-------------------------------------------------------| 
B|-------------------------------------------------------| 
G|-------------------------------------------------------| 
D|--0--3--5-0--3--5-0--3--5-6--6--6--0--3--5-0--3--5-----| 
A|--0--3--5-0--3--5-0--3--5-6--6--6--0--3--5-0--3--5-----| 
D|--0--3--5-0--3--5-0--3--5-6--6--6--0--3--5-0--3--5-----| 

e|-------------------------------------------------------| 
B|-------------------------------------------------------| 
G|--------------------------------------------10---------| 
D|--0-------------0-------------0-------------10---------| 
A|--0-------------0-------------0-------------8----------| 
D|--0--0--/10~----0--0--/11~----0--0--/12~----8----------| 

Ending 
e|-----------------------------| 
B|-----------------------------| 
G|-----------------------------| 
D|--0--3--5-0--3--5-0--3--5-0--|  
A|--0--3--5-0--3--5-0--3--5-0--| 
D|--0--3--5-0--3--5-0--3--5-0--| 


************************************ 

| /    Slide up 
| ~    Vibrato 
| N.C. No Chord  
| PM   Palm mute 

************************************ 
		  

See also:

tabs Detonautas - Outro lugar tabs Legião Urbana - Tempo Perdido(solo inicial ver.) tabs Paralamas do Sucesso - Meu erro tabs Legião Urbana - Pais e Filhos(solo) tabs Legião Urbana - Há Tempos tabs Nando Reis - Luz do Olhos
e-chords

Other versions:

tabs Eruca Sativa - Queloquepasa
auto scroll beats size up size down change color hide chords drawings
tab show chords e-chords YouTube Clip e-chords hide all tabs e-chords go to top tab

share