Erra

Rebirth

Erra

tabs nolevel nolevel

by  VSWORLD

save to print version add songbook text version e-mail correct tuner
chordsukulelecavacokeyboardtabbassdrumsharmonicaflute Guitar Pro
close

there isn't a video lesson for this song

chords

Rebirth

Key:  A# More
Rebirth Key FF
Rebirth Key F#F#
Rebirth Key GG
Rebirth Key G#G#(one step down)
Rebirth Key AA(half step down)
Rebirth Key A#A#(original key)
Rebirth Key BB(half step up)
Rebirth Key CC(one step up)
Rebirth Key C#C#
Rebirth Key DD
Rebirth Key D#D#
Rebirth Key EE
	  		


Tuning: A# F A# D# G C 


|-----------------------------------------------------| 
|-----------------------------------------------------| 
|------------------------------9h10p9-----------------| 
|-------------------------------------0-10------------| 
|-15------------10h12p10p0----------------------------| 
|----12-0-0-0--------------0---------------0---0-0-0--| 
        . .                           .        . . 

|------------------------------------------------------------------------------| 
|------------------------------------------------------------------------------| 
|----------------------------------------------------10------------------------| 
|-10----------------------------------------------------14---------0h12-0h12-0-| 
|------------------------------------------------------------------------------| 
|----8-0-0-0-0--0-0--0-0-0--0-0--0--0-0-0-0--0-0-0-0-------0-0-0---------------| 
       . . .    .    . . .  . .  .  . . . .  . . . .       . . 

|--------------------------------------------------------| 
|--------------------------------------------------------| 
|---------10p9----------------------------9--------------| 
|---10-12---------10----------------------0--------------| 
|--------------12-------------------------0--------------| 
|-0--------------------0-0-0-0---0-0-0-0--0--0--0-0-0-0--| 
  .  .  .       .      . . . .   . . . .     .  . . . . 


|-----------------------------------------------------------------| 
|-----------------------------------------------------------------| 
|-----------------------------------------------------------------| 
|-----------------------------------------------------------------| 
|---00-0-00-0-00-0000-00---0-0000-000-0-00-0-00-0000-000-00-00-0--| 
|-0-00-0-00-0-00-0000-00---0-0000-000-0-00-0-00-0000-000-00-00-0--| 
    .. . .. . .. .... ..   . .... ... . .. . .. .... ... .. .. . 

|----------------------------------------------------------------| 
|----------------------------------------------------------------| 
|----------------------------------------------------------------| 
|-00-00-00-00----------------------------------------------------| 
|-00-00-00-00-0000-00---0-0000-0-00-0-00--0-00-00-0-00-0-00-000--| 
|-00-00-00-00-0000-00---0-0000-0-00-0-00--0-00-00-0-00-0-00-000--| 
  .. .. .. .. .... ..   . .... . .. . ..  . .. .. . .. . .. ... 


Tapping (repeats) 

|-----------------------------------------------------------------------------------| 
|-------t17------t18----------------------------------------------------------------| 
|---------------------------t17--------t19------------------------------------------| 
|----h15------h15-------h15--------h15---------h15-t17-----h15-t19-----h15-t17/19---| 
|-----------------------------------------------------------------------------------| 
|-h12------h12------h12--------h12---------h12---------h12---------h12--------------| 

|-----------------------------------------| 
|-----------------------------------------| 
|-----------------------------------------| 
|-----h15---------h15---------h15-t17/19--| 
|---------t19---------t20-----------------| 
|-h12---------h12---------h12-------------| 
  
|---------------------------------------------------------------------------------| 
|--------t17--------t18-----------------------------------------------------------| 
|------------------------------t17--------t19-------------------------------------| 
|---------------------------------------------------t17--------t19--------t17/19--| 
|---------------------------------------------------------------------------------| 
|-h12h15-----h12h15-----h12h15-----h12h15-----h12h15----h12h15-----h12h15---------| 
  
|--------------------------------------| 
|--------------------------------------| 
|--------------------------------------| 
|------------------------------t17/19--| 
|--------t19--------t20----------------| 
|-h12h15-----h12h15-----h12h15---------| 



Chorus lead 

|----------------------------------| 
|------3-----/6-----6---------6----| 
|--------5------3-----3-----3---3--| 
|----------3------7-----7-5--------| 
|----------------------------------| 
|-12-0-----------------------------| 

|--------------------------------------| 
|----------3-----/6-----6---------6----| 
|------------5------3-----3-----3---3--| 
|--------------3------7-----7-5--------| 
|--------------------------------------| 
|-0-0-12-0-----------------------------| 
  . . 

|----------------------------------| 
|------3-----/6-----6---------6----| 
|--------5------3-----3-----3---3--| 
|----------3------7-----7-5--------| 
|----------------------------------| 
|-12-0-----------------------------| 

|--------------------------------------| 
|----------3-----/6-----6---------6----| 
|------------5------3-----3-----3---3--| 
|--------------3------7-----7-5--------| 
|--------------------------------------| 
|-0-0-12-0-----------------------------| 
  . . 


|-----------| 
|-----------| 
|-----------| 
|-0---------| 
|-0---------| 
|-0--0-0-0--| 
     . . 

|-10-------10-------10-------10-------10-------10--------| 
|----11-------11-------11-------11-------11-------11-----| 
|-------14-------14-------14-------14-------14-------14--| 
|--------------------------------------------------------| 
|--------------------------------------------------------| 
|--------------------------------------------------------| 

|-----------------12----12--------12------12------13-------13--------| 
|-------------8------8-----8----8----8-------8-------10-------10-----| 
|--------9h10----------------10--------10------10-------12-------12--| 
|-----10-------------------------------------------------------------| 
|-7/8----------------------------------------------------------------| 
|--------------------------------------------------------------------| 

|-12----------3--------------6------12b--| 
|----10-----5-------------10---10--------| 
|-------12\-----5------/7----------------| 
|----------------------------------------| 
|----------------------------------------| 
|----------------------------------------| 


|---------------------------------------------------------------------| 
|---------------------------------------------------------------------| 
|---------------------------------------------------------------------| 
|---------------------------------------------------------------------| 
|-0000-0000000-000-0-0000-0-0-0000-0-00-0-00-0-00-00-0-0000000--------| 
|-0000-0000000-000-0-0000-0-0-0000-0-00-0-00-0-00-00-0-0000000-00000--| 
  .... ....... ... . .... . . .... . .. . .. . .. .. . ....... ..... 

|-------------------------------------------------------| 
|-------------------------------------------------------| 
|-------------------------------------------------------| 
|-------------------------------------------------------| 
|-00-00-00-00-0000-00-00-0-0000-0-00-0-00-0-00-00-0-00--| 
|-00-00-00-00-0000-00-00-0-0000-0-00-0-00-0-00-00-0-00--| 
  .. .. .. .. .... .. .. . .... . .. . .. . .. .. . .. 
                                                           
                                                            
|-------------------------------------------------------|   
|-------------------------------------------------------|   
|-9---9-------9---9--------9---9-------9---9--5/7-------|   
|-0---0-------0---0--------0---0-------0---0--------10--|   
|-0-0-0-0-0-0-0-0-0-0--0-0-0-0-0-0-0-0-0-0-0------8-----|   
|-0-0-0-0-0-0-0-0-0-0--0-0-0-0-0-0-0-0-0-0-0------------|   
    .   . . .   .   .  . .   .   . . .   .                  
                                                             
|-------------------------------------------------------|   
|-------------------------------------------------------|   
|--------------------------------------------7/9--------|   
|-----10----10--------10---10-------10---10---------12--|   
|-8-8-8--8--8--8--8-8-8--8-8--8-8-8-8--8-8-------10-----|   
|-8-8-8--8--8--8--8-8-8--8-8--8-8-8-8--8-8--------------|   
  . .    .     .  . .    .    . . .    .                    
                                                            
                                                           

|--------------------------------| 
|---------------------------6----| 
|----------7/10-----------3---3--| 
|-0---0---------8-------5--------| 
|-0-0-0-----------12-------------| 
|-0-0-0--------------------------| 
    . 

|----------------------------------| 
|-----------------------------6----| 
|-9---9----7/10-10----------3---3--| 
|-0---0------------8------5--------| 
|-0-0-0--------------12------------| 
|-0-0-0----------------------------| 
    . 

|--------------------------------| 
|---------------------------6----| 
|-9---9----7/10-----------3---3--| 
|-0---0---------8-------5--------| 
|-0-0-0-----------12-------------| 
|-0-0-0--------------------------| 
    . 

|--------12-----------------------0----0------------------| 
|------8----8------------10-------------------------------| 
|---10--------10---10/12----12-10---10---10-----------10--|  
|-0-----------------------------------------8-------8-----| x4 
|---------------------------------------------12-10-------| 
|---------------------------------------------------------| 


|---------------------------------------------------------------------------| 
|---------------------------------------------------------------------------| 
|-10/12-0-0-10/14-0-0-10/12-0-0-9/14-0-0-10/14-0-0-9/12-0-0-10/14-0-0-9/12--| 
|---------------------------------------------------------------------------| 
|---------------------------------------------------------------------------| 
|---------------------------------------------------------------------------| 
        . .       . .       . .      . .       . .      . .       . .      

|--------------12-----------| 
|-----------13----13----13--| 
|-0-0-12/14-----------------| 
|--------------------15-----| 
|---------------------------| 
|---------------------------| 
  . .    

|---------------------------------------------------------------------------| 
|---------------------------------------------------------------------------| 
|-10/12-0-0-10/14-0-0-10/12-0-0-9/14-0-0-10/14-0-0-9/12-0-0-10/14-0-0-9/12--| 
|---------------------------------------------------------------------------| 
|---------------------------------------------------------------------------| 
|---------------------------------------------------------------------------| 
        . .       . .       . .      . .       . .      . .       . .   

|--------------12-----------| 
|-----------13----13----13--| 
|-0-0-12/14-----------------| 
|--------------------15-----| 
|---------------------------| 
|---------------------------| 
  . .    


Second Chorus 

|----------------------------------| 
|------3-----/6-----6---------6----| 
|--------5------3-----3-----3---3--| 
|----------3------7-----7-5--------| 
|----------------------------------| 
|-12-0-----------------------------| 

|--------------------------------------| 
|----------3-----/6-----6---------6----| 
|------------5------3-----3-----3---3--| 
|--------------3------7-----7-5--------| 
|--------------------------------------| 
|-0-0-12-0-----------------------------| 
  . . 

|----------------------------------| 
|------3-----/6-----6---------6----| 
|--------5------3-----3-----3---3--| 
|----------3------7-----7-5--------| 
|----------------------------------| 
|-12-0-----------------------------| 

|--------------------------------------| 
|----------3-----/6-----6---------6----| 
|------------5------3-----3-----3---3--| 
|--------------3------7-----7-5--------| 
|--------------------------------------| 
|-0-0-12-0-----------------------------| 
  . . 

|------10-------10-------10-------10-------10-------10-------10--------| 
|---------11-------11-------11-------11-------11-------11-------11-----| 
|------------14-------14-------14-------14-------14-------14-------14--| 
|-0--------------------------------------------------------------------| 
|-0--------------------------------------------------------------------| 
|-0--------------------------------------------------------------------| 
      

|------------------------------------------------------------| 
|------------------------------------------------------------| 
|------------------------------------------------------------| 
|------------------------------------------------14-0-10/12--| 
|--------------------------------0-0-----------0-------------| 
|-000000-0-000000-0-0000-0-00000-0-0-0-00000-000-------------| 
  ......   ......   ....   ..... . .   ..... ... 


Solo (100% correct) taken from a video Jesse (Erra guitarist) posted 

|-17-------15-------12h13-------------------------| 
|-------------------------------------------------| 
|----14\12----12\10-------/7-7\5/7----------------| 
|------------------------------------/8-7---------| 
|-----------------------------------------8-8/10--| 
|-------------------------------------------------| 

|---------------------13----------13/17br--| 
|---------------15/17----15-13-------------| 
|---------17-------------------15----------| 
|------15----------------------------------| 
|-8/13-------13----------------------------| 
|------------------------------------------| 
  .    .     . 

|-----------------------------------------------| 
|---------5h6p5--------------8/10--10/13--------| 
|---------------7-5h7---------------------12br--| 
|-----5h7-------------5/7\5---------------------| 
|-5h8-------------------------------------------| 
|-----------------------------------------------| 
  .   . 

|-----------------------------------------12h13p12----------13h15h17-15br/13-| 
|-----------------------------------13h15----------15-13h15------------------| 
|-------9h10p9----------------12h14------------------------------------------| 
|-10h12--------12-------10h12------------------------------------------------| 
|-----------------10h12------------------------------------------------------| 
|----------------------------------------------------------------------------| 


|-13/22-15-15/17---------------13h17p13--------------------------| 
|---------------------------15----------15-13h15-15/17\13-13/15--| 
|------------------------14--------------------------------------| 
|---------------------15-----------------------------------------| 
|------------------17--------------------------------------------| 
|----------------------------------------------------------------| 


|---------------------13----------13/17br--| 
|---------------15/17----15-13-------------| 
|---------17-------------------15----------| 
|------15----------------------------------| 
|-8/13-------13----------------------------| 
|------------------------------------------| 
  .    .     . 


|-17/20-20-20--------------------15/17-17-17--------------| 
|--------------13-13-13-15-15-15-------------13-13-15-15--| 
|---------------------------------------------------------| 
|---------------------------------------------------------| 
|---------------------------------------------------------| 
|---------------------------------------------------------| 


|-17/20-20-20-------------------------------20h22p20----20h22br----------------| 
|--------------13-13-13-15/22---20h22p20-------------22------------------------| 
|----------------------------------------22-----------------------10/12br-10v--| 
|------------------------------------------------------------------------------| 
|------------------------------------------------------------------------------| 
|------------------------------------------------------------------------------| 


Clean outro 

|---------------------------------------------------------------------------| 
|--------------------------15-------15-------------------------15-------15--| 
|--------14-------14-------------------------14-------14--------------------| 
|-----15-------15-------15-------15-------15-------15-------15-------15-----| 
|-/13-------13-------13-------13-------13-------13-------13-------13--------| 
|---------------------------------------------------------------------------| 

|-------------------------------------------------------------------------| 
|-17-------17-------17-------17-------------17-------17-------17-------17-| 
|----17-------17-------17-------17-------17-------17-------17-------17----| 
|-------15-------15-------15-------15-------------------------------------| 
|-------------------------------------17-------17-------17-------17-------| 
|-------------------------------------------------------------------------| 
   
|---------------------------------------------------------------------------| 
|--------------------------15-------15-------------------------15-------15--| 
|--------14-------14-------------------------14-------14--------------------| 
|-----15-------15-------15-------15-------15-------15-------15-------15-----| 
|-/13-------13-------13-------13-------13-------13-------13-------13--------| 
|---------------------------------------------------------------------------| 
   
   


| /   slide up 
| \   slide down 
| h   hammer-on 
| p   pull-off 
| t   tap 
| br  bend release 
| b   bend 
| v   vibrato 
		  

See also:

tabs Deep Purple - Sometimes a Feel Like Screaming tabs Deep Purple - Mistreated tabs Deep Purple - Smoke on the Water (ver. 2) tabs Ira! - Vitrine Viva tabs Doa - Sexyest Girl tabs Deep Purple - Ted The Mechanic
e-chords

Other versions:

tabs Angra - Rebirth tabs X-y - Rebirth tabs Erra - Rebirth tabs Poets of the fall - Rebirth tabs Yuck - Rebirth tabs Angra - Rebirth (Acústico)
auto scroll beats size up size down change color hide chords drawings
tab show chords e-chords YouTube Clip e-chords hide all tabs e-chords go to top tab

share with facebook