Erra

Frostbite

Erra

tabs nolevel nolevel

by  HUGO_RODRIGUES

save to print version add songbook text version e-mail correct tuner
chordsukulelecavacokeyboardtabbassdrumsharmonicaflute Guitar Pro
close

there isn't a video lesson for this song

chords

Frostbite

	  		


   0:00 
C |---------------------------------------------------------------| 
G |---------------------------------------------------------------| 
D#|----------7-7-7---------------------10-----10-----10/12--------| 
A#|----------------8-8-8-8-8-8-8-8-7-8----8-7----8-7--------------| 
F |-10-10-10------------------------------------------------------| 
A#|---------------------------------------------------------------| 
                                   x x      x      x 


C |-------------------10------------------------------------------| 
G |-------------10h11----11---------------------------------------| 
D#|-------10h12---------------------------------------------------| 
A#|-10h12---------------------------------------------------------| 
F |---------------------------------------------------------------| 
A#|---------------------------------------------------------------| 



C |-10-------10-------10-------10-------10------------------------| 
G |----11-------11-------11-------11-------11---------------------| 
D#|-------12-------12-------12-------12-------12/14---------------| 
A#|---------------------------------------------------------------| 
F |---------------------------------------------------------------| 
A#|---------------------------------------------------------------| 



C |-13-------13-------13------------------------------------------| 
G |----11-------11-------11-11/15---10b---------------------------| 
D#|-------14-------14---------------------------------------------| 
A#|---------------------------------------------------------------| 
F |---------------------------------------------------------------| 
A#|---------------------------------------------------------------| 


   0:09 
C |---------------------------------------------------------------| 
G |-6~--------------------------------11----11--------------------| 
D#|-----8~-------------------------14----14-----------------------| 
A#|---------5~------5~-------5---5--------------------------------| 
F |-------------8~---------8---8----------------------------------| 
A#|---------------------------------------------------------------| 


   0:13 
C |---------------------------------------------------------------| 
G |---------------------------------------------------------------| 
D#|---------------------------------------------------------------| 
A#|-555---5-555-555---5-5-555-5-555-333-333-3-3-333-111111~-------| 
F |-555---5-555-555---5-5-555-5-555-333-333-3-3-333-111111~-------| 
A#|-555---5-555-555---5-5-555-5-555-333-333-3-3-333-111111~-------| 
    xxx   x xxx xxx   x x xxx x xxx xxx xxx x x xxx 


C |---------------------------------------------------------------| 
G |---------------------------------------------------------------| 
D#|-15---10-12-14-12-10-------------------------------------------| 
A#|----0----------------12----------------------------------------| 
F |---------------------------------------------------------------| 
A#|---------------------------------------------------------------| 
       x 


C |---------------------------------------------------------------| 
G |-------------------------------------------------------6~------| 
D#|-------------------------------------------7-------------0~----| 
A#|-555---5-555-555---5-5-555-5-555-333-333-------7---7/8~--------| 
F |-555---5-555-555---5-5-555-5-555-333-333-----------------------| 
A#|-555---5-555-555---5-5-555-5-555-333-333-3---3---3-------------| 
    xxx   x xxx xxx   x x xxx x xxx xxx xxx x   x   x 


C |---------------------------------------------------------------| 
G |---------------------------------------------------------------| 
D#|---7--------------------------------------------7/10-----------| 
A#|-------7---8-----5~-----------------7---8----------------------| 
F |---------------8~--8~-8-888-8-888-----------8------------------| 
A#|-5---5---5---5--------7-777-7-777-5---5---5---5----------------| 
    x   x   x   x        x xxx x xxx x   x   x   x 
  

C |--------8h10---------------------------------------------------| 
G |---10--------6h10----------------------------------------------| 
D#|---------------------------------------------------------------| 
A#|---------------------------------------------------------------| 
F |-8----8--------------------------------------------------------| 
A#|---------------------------------------------------------------| 
    x    x 

   0:29 
C |---------------------------------------------------------------| 
G |---------------------------------------------------------------| 
D#|---------------------------------------------------------------| 
A#|-555---5-555-555---5-5-555-5-555-333-333-3-3-333-111111~-------| 
F |-555---5-555-555---5-5-555-5-555-333-333-3-3-333-111111~-------| 
A#|-555---5-555-555---5-5-555-5-555-333-333-3-3-333-111111~-------| 
    xxx   x xxx xxx   x x xxx x xxx xxx xxx x x xxx 


C |-----------------------------------6~-------6/10---------------| 
G |-------8~----------------6---/10-------10~-------12-12---------| 
D#|-/10~----------------5h7---7---------------------------10v-----| 
A#|---------------------------------------------------------------| 
F |-----------8h10~-----------------------------------------------| 
A#|---------------------------------------------------------------| 



C |----------13~--------------------------------------------------| 
G |-------11~-----------------------------------------------------| 
D#|----14~--------------------------------------------------------| 
A#|-12~-----------------------------------------------------------| 
F |---------------------------------------------------------------| 
A#|---------------------------------------------------------------| 


   0:44 
C |---------------------------------------------------------------| 
G |---------------------------------------------------------------| 
D#|---------------------------------------------------------------| 
A#|-000000-00-000000-00-00-000000---------------------------------| 
F |-000000-00-000000-00-00-000000-----3---------------------------| 
A#|-000000-00-000000-00-00-000000-0-1-----------------------------| 
    xxxxxx xx xxxxxx xx xx xxxxxx 


C |---------------------------------------------------------------| 
G |---------------------------------------------------------------| 
D#|---------------------------------------------------------------| 
A#|-000000-00-000000-00-00-000000---------------------------------| 
F |-000000-00-000000-00-00-000000-----3-----3-----3---------------| 
A#|-000000-00-000000-00-00-000000-0-1---0-1---0-1-----------------| 
    xxxxxx xx xxxxxx xx xx xxxxxx 

   0:52 
C |---------------------------------------------------------------| 
G |---------------------------------------------------------------| 
D#|---------------------------------------------------------------| 
A#|-0-0-000000------0---0-0---0------0-----000000-----------------| 
F |-0-0-000000------0---0-0---0------0-----000000-----------------| 
A#|-0-0-000000------0---0-0---0------0-0~--000000-----------------| 
    x x xxxxxx      x   x x   x      x     xxxxxx 


C |---------------------------------------------------------------| 
G |---------------------------------------------------------------| 
D#|---------------------------------------------------------------| 
A#|-0---0-0---0------0-0------------------------------------------| 
F |-0---0-0---0------0-0------------------------------------------| 
A#|-0---0-0---0------0-0---0~-------------------------------------| 
    x   x x   x      x x  

   0:59 
C |---------------------------------------------------------------| 
G |---------------------------------------------------------------| 
D#|---------------------------------------------------------------| 
A#|-000000~--0~--0-0-0~--0-0~--000000~--0-0---0-0~--0~--0-0~------| 
F |-000000~--0~--0-1-0~--0-0~--000000~--0-1---0-0~--0~--0-0~------| 
A#|-000000~--0~--0---0~--0-0~--000000~--0-----0-0~--0~--0-0~------| 
    xxxxxx   x   x   x   x x   xxxxxx   x     x x   x   x x 


C |---------------------------------------------------------------| 
G |---------------------------------------------------------------| 
D#|---------------------------------------------------------------| 
A#|-000000~--0-0---0-0~--0~--0-0~---------------------------------| 
F |-000000~--0-1---0-0~--0~--0-0~---------------------------------| 
A#|-000000~--0-----0-0~--0~--0-0~---------------------------------| 
    xxxxxx   x     x x   x   x x 

   1:09 
C |---------------------------------------------------------------| 
G |---------------------------------------------------------------| 
D#|---------------------------------------------------------------| 
A#|-000000------0-0---0-0---0------0-----00000000-----------------| 
F |-000000------0-0---0-0---0------0-----00000000-----------------| 
A#|-000000------0-0---0-0---0------0-0~--00000000-----------------| 
    xxxxxx      x x   x x   x      x     xxxxxxxx 


C |---------------------------------------------------------------| 
G |---------------------------------------------------------------| 
D#|---------------------------------------------------------------| 
A#|-0-0---0-0---0------0------------------------------------------| 
F |-0-0---0-0---0------0------------------------------------------| 
A#|-0-0---0-0---0------0-0b---------------------------------------| 
    x x   x x   x      x 

   1:16 
C |---------------------------------------------------------------| 
G |---------------------------------------------------------------| 
D#|-----0~----0~----0~--------------10~-----10~-----10~-----------| 
A#|---5~----5~----5~-----8~-------8~------8~------8~------10~-----| 
F |-8~----8~----8~----10~--10~-12~-----12~-----12~-----13~---13~--| 
A#|---------------------------------------------------------------| 


   1:24 
C |---------------------------------------------------------------| 
G |-------------13/15---------------------------------------------| 
D#|----12/14--------------------10/12-------10h12-----------------| 
A#|-------------------12/10-7-8-------10h12-----------------------| 
F |-10-------12---------------------------------------------------| 
A#|---------------------------------------------------------------| 
     x        x             x x 
  

C |-10h13p10----10----------------13h17p13------------------------| 
G |----------13---------------------------------------------------| 
D#|----------------14h15p14----12----------15p14h15---------------| 
A#|-------------------------15------------------------------------| 
F |---------------------------------------------------------------| 
A#|---------------------------------------------------------------| 



C |-13h17p13----------13h17p13----------13h17p13------------------| 
G |---------------------------------------------------------------| 
D#|----------15p14h15----------15p14h15----------15p14h15---------| 
A#|---------------------------------------------------------------| 
F |---------------------------------------------------------------| 
A#|---------------------------------------------------------------| 



C |-13h17p13------------------------------------------------------| 
G |---------------------------------------------------------------| 
D#|----------15p14h15-14h15p14------------------------------------| 
A#|----------------------------15/17------------------------------| 
F |---------------------------------------------------------------| 
A#|---------------------------------------------------------------| 


   1:31 x2 
C |----------------------13----------13-------10------------------| 
G |-8h11p8------11-------------13/15----15/11----11---------------| 
D#|--------8/10----10/12----12------------------------------------| 
A#|---------------------------------------------------------------| 
F |---------------------------------------------------------------| 
A#|---------------------------------------------------------------| 



C |----------------------13----------13-------17------------------| 
G |-8h11p8------11-------------13/15----15/18----18---------------| 
D#|--------8/10----10/12----12------------------------------------| 
A#|---------------------------------------------------------------| 
F |---------------------------------------------------------------| 
A#|---------------------------------------------------------------| 



C |-18----------18----------18----------22----------22------------| 
G |----20----20----20----20----20----20----20----20----20----20---| 
D#|-------22----------22----------22----------22----------22------| 
A#|---------------------------------------------------------------| 
F |---------------------------------------------------------------| 
A#|---------------------------------------------------------------| 



C |-18----------18----------22------------------------------------| 
G |----20----20----20----20----20----20---------------------------| 
D#|-------22----------22----------22------------------------------| 
A#|---------------------------------------------------------------| 
F |---------------------------------------------------------------| 
A#|---------------------------------------------------------------| 


   1:51 
C |---------------------------------------------------------------| 
G |--------------------------------------------6------------------| 
D#|---------------------------------------------------------------| 
A#|-----------------7----------------------7/8---8----------------| 
F |-------8----------------------8--------------------------------| 
A#|-5---5-----5---5---3b---5---5-----5---5------------------------| 
        x         x            x         x 


C |---------------------------------------------------------------| 
G |---------------------6-----------------------------------------| 
D#|---------------------------------------------------------------| 
A#|-----------------7/8---8-------------------7-------------------| 
F |-------8-------------------------8-----------------------------| 
A#|-5---5-----5---5-----------5---5-----5---5---3b----------------| 
        x         x               x         x 

   1:58 
C |------------------------------------------------------17b------| 
G |-/10----------11------------------------------------------18---| 
D#|-----10---/14--------------------------------------------------| 
A#|-----------------12~--12b--------------------12h13h15----------| 
F |---------------------------10h12h13-12h13h15-------------------| 
A#|---------------------------------------------------------------| 



C |---------------------------------------------------------------| 
G |---------------------------------------------------------------| 
D#|---------------------------------------------------------------| 
A#|-111-1-1---111-1-111-------111-1---111-1-1---1111-1-1---1------| 
F |-111-1-1---111-1-111-------111-1---111-1-1---1111-1-1---1------| 
A#|-111-1-1---111-1-111-1b-1b-111-1---111-1-1---1111-1-1---1------| 
    xxx x     xxx x xxx       xxx     xxx x     xxxx   x   x 
  
   2:13 
C |---------------------------------------------------------------| 
G |---------------------------------------------------------------| 
D#|----------7-7-7---------------------10-----10-----10/12--------| 
A#|----------------8-8-8-8-8-8-8-8-7-8----8-7----8-7--------------| 
F |-10-10-10------------------------------------------------------| 
A#|---------------------------------------------------------------| 
                                   x x      x      x 


C |-------------------10------------------------------------------| 
G |-------------10h11----11---------------------------------------| 
D#|-------10h12---------------------------------------------------| 
A#|-10h12---------------------------------------------------------| 
F |---------------------------------------------------------------| 
A#|---------------------------------------------------------------| 



C |-10-------10-------10-------10-------10------------------------| 
G |----11-------11-------11-------11-------11----11---------------| 
D#|-------12-------12-------12-------12-------12------------------| 
A#|---------------------------------------------------------------| 
F |---------------------------------------------------------------| 
A#|---------------------------------------------------------------| 
           x        x        x        x        x 


C |-6-----6-----6---6----------6-------6--------------------------| 
G |---4-----4-----4---10----10---10-10----------------------------| 
D#|-----7-----7----------10---------------------------------------| 
A#|---------------------------------------------------------------| 
F |---------------------------------------------------------------| 
A#|---------------------------------------------------------------| 
        x     x           x        

   2:23 
C |-/13---15-----------------------------------/13---15-----------| 
G |------------13-----------------------------------------13------| 
D#|----------------------/12---14---10----------------------------| 
A#|---------------------------------------------------------------| 
F |---------------------------------------------------------------| 
A#|---------------------------------------------------------------| 



C |-/17---17b------------18---------------------------------------| 
G |-------------18-18/22----22------------------------------------| 
D#|---------------------------------------------------------------| 
A#|---------------------------------------------------------------| 
F |---------------------------------------------------------------| 
A#|---------------------------------------------------------------| 


   2:33 
C |-15p13----13---------------------------------------------------| 
G |-------15----15p13-------13------------------------------------| 
D#|-------------------12h14---------------------12/14----14/15----| 
A#|----------------------------12h14h15------10-------12----------| 
F |-------------------------------------12p0----------------------| 
A#|---------------------------------------------------------------| 
                                              x        x 


C |-------13----17-------17-------17------------------------------| 
G |-13-------13----13-------13-------13---------------------------| 
D#|----15-------------15-------15---------------------------------| 
A#|---------------------------------------------------------------| 
F |---------------------------------------------------------------| 
A#|---------------------------------------------------------------| 


   2:38 
C |-------------------------------------------------12------------| 
G |-------------------------10----------10--------8----8----------| 
D#|-12-----9/10------------------9h10--------9/10--------10-------| 
A#|---------------10---12-----------------------------------------| 
F |----8/7------8----8----8----8------8----8----------------------| 
A#|---------------------------------------------------------------| 
                x    x    x    x      x    x 

   2:41 
C |---------------------------------------------------------------| 
G |------------------------------------------------17-------------| 
D#|-5---7---9---10---9---9/12----12/14----14/17-------------------| 
A#|---------------------------------------------------------------| 
F |-3---5---7------8---8------10-------12-------15----------------| 
A#|---------------------------------------------------------------| 
                       x       x        x        x      


C |----------15-------13-------------------13~--------------------| 
G |----17/18----18-------17-----------11~-------------------------| 
D#|----------------17-------15---14~------------------------------| 
A#|---------------------------------------------------------------| 
F |-15------------------------------------------------------------| 
A#|---------------------------------------------------------------| 
     x 

   2:48 
C |-/17-------------------------------------------------17--------| 
G |-------15---17----------------------------------15-------------| 
D#|-----------------14--------14-------------/17------------------| 
A#|----------------------17--------15---14------------------------| 
F |---------------------------------------------------------------| 
A#|---------------------------------------------------------------| 


   2:52 
C |-20----------18---------17----------20---------22-(x7)---------| 
G |-15-(x24)----15-(x8)----15-(x16)----15-(x8)--------------------| 
D#|-17----------17---------17----------17-------------------------| 
A#|---------------------------------------------------------------| 
F |---------------------------------------------------------------| 
A#|---------------------------------------------------------------| 


   3:02 x3 
C |----------------------13----------13-------10------------------| 
G |-8h11p8------11-------------13/15----15/11----11---------------| 
D#|--------8/10----10/12----12------------------------------------| 
A#|---------------------------------------------------------------| 
F |---------------------------------------------------------------| 
A#|---------------------------------------------------------------| 



C |----------------------13----------13-------17------------------| 
G |-8h11p8------11-------------13/15----15/18----18---------------| 
D#|--------8/10----10/12----12------------------------------------| 
A#|---------------------------------------------------------------| 
F |---------------------------------------------------------------| 
A#|---------------------------------------------------------------| 



C |-18----------18----------18----------22----------22------------| 
G |----20----20----20----20----20----20----20----20----20----20---| 
D#|-------22----------22----------22----------22----------22------| 
A#|---------------------------------------------------------------| 
F |---------------------------------------------------------------| 
A#|---------------------------------------------------------------| 



C |-18----------18----------22------------------------------------| 
G |----20----20----20----20----20----20---------------------------| 
D#|-------22----------22----------22------------------------------| 
A#|---------------------------------------------------------------| 
F |---------------------------------------------------------------| 
A#|---------------------------------------------------------------| 



C |----------------------13----------13-------10------------------| 
G |-8h11p8------11-------------13/15----15/11----11---------------| 
D#|--------8/10----10/12----12------------------------------------| 
A#|---------------------------------------------------------------| 
F |---------------------------------------------------------------| 
A#|---------------------------------------------------------------| 



C |----------------------13----------13-------17------------------| 
G |-8h11p8------11-------------13/15----15/18----18---------------| 
D#|--------8/10----10/12----12------------------------------------| 
A#|-------------------------------------------------8---8---8~----| 
F |-------------------------------------------------6---6---6~----| 
A#|---------------------------------------------------------------| 
		  

See also:

tabs Deep Purple - Deep Purple - Smoke On The Water tabs Albert Hammond Jr - Miss Myrtle tabs Deep Purple - The Unwritten Law tabs Deep Purple - Pictures of Home tabs Deep Purple - Space Truckin tabs Deep Purple - Rat Bat Blues
e-chords

Other versions:

tabs Erra - Frostbite
auto scroll beats size up size down change color hide chords drawings
tab show chords e-chords YouTube Clip e-chords hide all tabs e-chords go to top tab

share with facebook