Erra

Dreamwalkers

Erra

tabs nolevel nolevel

by  UBIRBOMFIM

save to print version add songbook text version e-mail correct tuner
chordsukulelecavacokeyboardtabbassdrumsharmonicaflute Guitar Pro
close

there isn't a video lesson for this song

chords

Dreamwalkers

	  		

   
   0:00 
C |---------------------------------------------------------------| 
G |-18-18-18------------------------------------------------------| 
D#|----------------------------14-------12-12-12------------------| 
A#|----------10-10-10-12-12-12----12-10----------12---------------| 
F |---------------------------------------------------------------| 
A#|---------------------------------------------------------------| 



C |---------------------------------------------------------------| 
G |-18-18-18----------13-13-13-15-15-15-8~---8~-------------------| 
D#|---------------------------------------10~---------------------| 
A#|----------12-12-12--------------------------10~----------------| 
F |---------------------------------------------------------------| 
A#|---------------------------------------------------------------| 



C |-17-17-17----------20-20-20------------------------------------| 
G |----------15-15-15----------18-18-18----22-20------------------| 
D#|-------------------------------------17-------19---------------| 
A#|---------------------------------------------------------------| 
F |---------------------------------------------------------------| 
A#|---------------------------------------------------------------| 



C |---------------------------------------------------------------| 
G |-18-18-18----------13-13-13-15-15-15-8~---8~-------------------| 
D#|---------------------------------------10~---------------------| 
A#|----------12-12-12--------------------------10~----------------| 
F |---------------------------------------------------------------| 
A#|---------------------------------------------------------------| 



C |-------------15/17---------------------------------------------| 
G |----------------------18---------------------------------------| 
D#|-------14-17-------15------------------------------------------| 
A#|-12-15---------------------------------------------------------| 
F |---------------------------------------------------------------| 
A#|---------------------------------------------------------------| 


   0:12 
C |---------------------------------------------------------------| 
G |---------------------------------------------------------------| 
D#|---------------------------------------------------------------| 
A#|---------------------------------------------------------------| 
F |---------------------------------------------------------------| 
A#|-10h12-10h12-10-12-0-/12-0-0-0-/12-0-0-0-----------------------| 
                x  x  x    


C |---------------------------------------------------------------| 
G |---------------------------------------------------------------| 
D#|---------------------------------------------------------------| 
A#|----------------3----------8h12p8p0----------------------------| 
F |----------------7------------------8h12p8p0--------------------| 
A#|-0000000-000-00---0-0-0-00-------------------------------------| 
    xxxxxx  xx  xx         XX 


C |---------------------------------------------------------------| 
G |---------------------------------------------------------------| 
D#|---------------------------------------------------------------| 
A#|---------------------------------------------------------------| 
F |-----12-------------8------------------------------------------| 
A#|-888----8-101010-10--------------------------------------------| 
    xx       x x x  x 

   0:19 
C |---------------------------------------------------------------| 
G |---------------------------------------------------------------| 
D#|---------------------------------------------------------------| 
A#|-----------------------------3-----------12h15p12p0------------| 
F |-------------------------0-0-7---------------------12h15p12p0--| 
A#|-/12-0-/12-0---0000000---0-0-----00-0-00-----------------------| 
                  xxxxxx    x x     xx   xx 
  

C |---------------------------------------------------------------| 
G |---------------------------------------------------------------| 
D#|----------7/9--------------------------------------------------| 
A#|-----10--------------------------------------------------------| 
F |-7-8----8-----8------------------------------------------------| 
A#|----------------7-8--------------------------------------------| 
    x x    x 

   0:24 
C |---------------------------------------------------------------| 
G |---------------------------------------------------------------| 
D#|-----------------10-----------------10-------------------------| 
A#|---10-------10--------10-------10--------12--------------------| 
F |-5----5---5----5----5----5---5----5----5----8------------------| 
A#|--------0------------------0------------------0----------------| 
    x        x    x    x        x    x    x 


C |---------------------------------------------------------------| 
G |---------------------------------------------------------------| 
D#|----------12--------------------9h10p9-------------------------| 
A#|----12---------------------------------10----------------------| 
F |-10----10----10-12------8-10-12--------------------------------| 
A#|-------------------10-0-------------------0--------------------| 
    x     x     x          x x  x 


C |---------------------------------------------------------------| 
G |---------------------------------------------------------------| 
D#|--------10-----------------10----------------------------------| 
A#|---10--------10-------10--------12-----------------------------| 
F |-5----5----5----5---5----5----5----8---------------------------| 
A#|------------------0------------------0-------------------------| 
    x    x    x        x    x    x 


C |---------------------------------------------------------------| 
G |---------------------------------------------------------------| 
D#|----------12--------------------9h10p9-------------------------| 
A#|----12---------------------------------10----------------------| 
F |-10----10----10-12------8-10-12--------------------------------| 
A#|-------------------10-0----------------------------------------| 
    x     x     x          x x  x 

   0:36 
C |---------------------------------------------------------------| 
G |-------------------------------------------------13/15---------| 
D#|-9b----------------------------10-------10/12-10-------10-14-12| 
A#|----10/12~------------------10----12-10------------------------| 
F |--------------------8-10-12------------------------------------| 
A#|---------------------------------------------------------------| 
                       x x  x  x     x  x                 x 
            

C |---------------------------------------------------------------| 
G |-18-(x6)-15-(x6)-20-(x6)-18-(x4)-22-(x6)-13-(x6)-15~-----------| 
D#|---------------------------------------------------------------| 
A#|---------------------------------------------------------------| 
F |---------------------------------------------------------------| 
A#|---------------------------------------------------------------| 



C |-20-20-20----------13/20---------------------------------------| 
G |----------15-18------------------------------------------------| 
D#|----------------17---------------------------------------------| 
A#|---------------------------------------------------------------| 
F |---------------------------------------------------------------| 
A#|---------------------------------------------------------------| 


   0:46 
C |---------------------------------------------------------------| 
G |-----------------------------------------8~--------------------| 
D#|--------------------------------------10~--10~-----------------| 
A#|----------12/15------10------10----10~-------------------------| 
F |---------------------------------------------------------------| 
A#|-10-10-10-------12/8------10----10-----------------------------| 
                             x     x 

   0:49 x2 
C |---------------------------------------------------------------| 
G |---------------------------------------------------------------| 
D#|----------14-14------------------------------------------------| 
A#|-------------------17-17-17----------12-12---------------------| 
F |---------------------------------------------------------------| 
A#|-12-12-12-------12----------10-10-10-------12-12---------------| 
                   x 


C |---------------------------------------------------------------| 
G |---------------------------------------------------------------| 
D#|---------------12-12-12----------------------------------------| 
A#|-------10-10--------------12/7---------------------------------| 
F |-----------------------------------8---------------------------| 
A#|-8-8-8-------8----------8------5-7---10------------------------| 
                x          x 
  

C |-------------15/17---------------------------------------------| 
G |----------------------18---------------------------------------| 
D#|-------14-17-------15------------------------------------------| 
A#|-12-15---------------------------------------------------------| 
F |---------------------------------------------------------------| 
A#|---------------------------------------------------------------| 


   1:03 
C |---------------------------------------------------------------| 
G |---------------------------------------------------------------| 
D#|---------------------------------------------------------------| 
A#|---------------------------------------------------------------| 
F |-00-0000-00-00-0000-00-00000000-00-00--------------------------| 
A#|-00-0000-00-00-0000-00-00000000-00-00--------------------------| 
    xx xxxx xx xx xxxx xx xxxxxxxx xx xx 


C |---------------------------------------------------------------| 
G |---------------------------------------------------------------| 
D#|---------------------------------------------------------------| 
A#|------------------0h7----3-------------------------------------| 
F |--------------0h5--------7-------0000-000000-000---------------| 
A#|-00-0h12-0000---------00---000---0000-000000-000-1b------------| 
    xx      xxxx         xx   xx    xxxx xxxxxx xxx 

   1:11 x2 
C |-10------------8-10--------------------------------------------| 
G |------8---10----------8---10---10-6----------------------------| 
D#|----7---7----7------7---7----7------7--------------------------| 
A#|---------------------------------------------------------------| 
F |---------------------------------------------------------------| 
A#|---------------------------------------------------------------| 



C |-10------------8-10------------8-10----------------------------| 
G |------8---10----------8---10-----------------------------------| 
D#|----7---7----7------7---7----7------7--------------------------| 
A#|---------------------------------------------------------------| 
F |---------------------------------------------------------------| 
A#|---------------------------------------------------------------| 



C |-10------------8-10--------------------------------------------| 
G |------8---10----------8---10---10-6----------------------------| 
D#|----7---7----7------7---7----7------7--------------------------| 
A#|---------------------------------------------------------------| 
F |---------------------------------------------------------------| 
A#|---------------------------------------------------------------| 



C |-10------------8-10--------------------------------------------| 
G |------8---10----------8---10---10-6----------------------------| 
D#|----7---7----7------7---7----7------7--------------------------| 
A#|---------------------------------------------------------------| 
F |---------------------------------------------------------------| 
A#|---------------------------------------------------------------| 


   1:27 
C |---------------------------------------------------------------| 
G |---------------------------------------------------------------| 
D#|---------------------------------------------------------------| 
A#|-12-------------7-------------10------------5------------------| 
F |-10-(x16)-------5-(x3)--------8-(x3)--------3-(x10)------------| 
A#|-10-------------5-------------8-------------3------------------| 



C |---------------------------------------------------------------| 
G |---------------------------------------------------------------| 
D#|---------------------------------------------------------------| 
A#|-12-------------7-------------10------------3---3-3-3-3-3-3-3--| 
F |-10-(x16)-------5-(x3)--------8-(x3)--------3---3-3-3-3-3-3-3--| 
A#|-10-------------5-------------8-------------3---3-3-3-3-3-3-3--| 
                                                   x x x x x x x  
  
   1:38 
C |---------------------------------------------------------------| 
G |---------------------------------------------------------------| 
D#|---------------------------------10-------14-------------------| 
A#|-/12-0-10h12-0-12-0-12-0-10h12-0----12-10----------------------| 
F |---------------------------------------------------------------| 
A#|---------------------------------------------------------------| 
        x       x    x    x       x    x  x 


C |---------------------------------------------------------------| 
G |---------------------------------------------------------------| 
D#|-10---10----10-------------------------------------------------| 
A#|----0----10----12-0-10-0-10-12-10-12-0-10-14-------------------| 
F |---------------------------------------------------------------| 
A#|---------------------------------------------------------------| 
       x    x        x    x             x 
  

C |---------------------------------------------------------------| 
G |---------------------------------------------------------------| 
D#|---------------------------------10----------------------------| 
A#|-/12-0-10h12-0-12-0-12-0-10h12-0----12-14-10-------------------| 
F |---------------------------------------------------------------| 
A#|---------------------------------------------------------------| 
        x       x    x    x       x    x  x 


C |---------------------------------------------------------------| 
G |---------------------------------------------------------------| 
D#|-141414-14------10---h9b---------------------------------------| 
A#|-----------12--------------10~---------------------------------| 
F |---------------------------------------------------------------| 
A#|---------------------------------------------------------------| 


   1:49 x4 
C |---------------------------------------------------------------| 
G |---------------------------------------------------------------| 
D#|-------14-----10-------10-------10-----------------------------| 
A#|---------------------7--------7-------10-----------------------| 
F |----12------8------5--------5----------------------------------| 
A#|-12-------8------5--------5--------10--------------------------| 
    x  x     x x    x x x    x x x    x 


C |-------------15/17---------------------------------------------| 
G |----------------------18---------------------------------------| 
D#|-------14-17-------15------------------------------------------| 
A#|-12-15---------------------------------------------------------| 
F |---------------------------------------------------------------| 
A#|---------------------------------------------------------------| 


   2:02 
C |---------------------------------------------------------------| 
G |---------------------------------------------------------------| 
D#|---------------------12~----------10~--------------------------| 
A#|------------------15~---15~----14~---14~-----------------------| 
F |---------------------------------------------------------------| 
A#|-/12-0-/12-0-1212-----------10---------------------------------| 
                x x            x 


C |---------------------------------------------------------------| 
G |----------------------------------11~--------------------------| 
D#|---------------------12~-------14~---14~-----------------------| 
A#|------------------15~---15~------------------------------------| 
F |---------------------------------------------------------------| 
A#|-/12-0-/12-0-1212-----------10---------------------------------| 
                x x            x  


C |---------------------------------------------------------------| 
G |---------------------------------------------------------------| 
D#|---------------------12~----------10~--------------------------| 
A#|------------------15~---15~----14~---14~-----------------------| 
F |---------------------------------------------------------------| 
A#|-/12-0-/12-0-1212-----------10---------------------------------| 
                x x            x 

   2:10 
C |---------------------------------------------------------------| 
G |---------------------------------------------------------------| 
D#|---------------------9/10-----------12/14----------------------| 
A#|----------------------------10/12------------------------------| 
F |---10/12------8-12---------------------------------------------| 
A#|-8-------8-12------8------8-------8----------------------------| 
    x       x x  x x  x      x       x 

   2:13 x4 
C |---------------------------------------------------------------| 
G |---------------------------------------------------------------| 
D#|----------14-14------------------------------------------------| 
A#|-------------------17-17-17----------12-12---------------------| 
F |---------------------------------------------------------------| 
A#|-12-12-12-------12----------10-10-10-------12-12---------------| 
                   x 


C |---------------------------------------------------------------| 
G |---------------------------------------------------------------| 
D#|---------------12-12-12----------------------------------------| 
A#|-------10-10--------------12/7---------------------------------| 
F |-----------------------------------8---------------------------| 
A#|-8-8-8-------8----------8------5-7---10------------------------| 
                x          x 
  
   2:34 
C |---------------------------------------------------------------| 
G |---------------------------------------------------------------| 
D#|---------------------------------------------------------------| 
A#|-5--------------7-------------10------------5------------------| 
F |-5--------------5-(x3)--------8-(x3)--------3-(X10)------------| 
A#|-5--------------5-------------8-------------3------------------| 
    x 


C |---------------------------------------------------------------| 
G |---------------------------------------------------------------| 
D#|---------------------------------------------------------------| 
A#|-12-------------7-------------10------------3---3-3-3-3-3-3-3--| 
F |-10-(x16)-------5-(x3)--------8-(x3)--------3---3-3-3-3-3-3-3--| 
A#|-10-------------5-------------8-------------3---3-3-3-3-3-3-3--| 
                                                   x x x x x x x  

   2:45 x2 
C |---------------------------------------------------------------| 
G |---------------------------------------------------------------| 
D#|---------------------------------10-------14-------------------| 
A#|-/12-0-10h12-0-12-0-12-0-10h12-0----12-10----------------------| 
F |---------------------------------------------------------------| 
A#|---------------------------------------------------------------| 
        x       x    x    x       x    x  x 


C |---------------------------------------------------------------| 
G |---------------------------------------------------------------| 
D#|-10---10----10-------------------------------------------------| 
A#|----0----10----12-0-10-0-10-12-10-12-0-10-14-------------------| 
F |---------------------------------------------------------------| 
A#|---------------------------------------------------------------| 
       x    x        x    x             x 
  

C |---------------------------------------------------------------| 
G |---------------------------------------------------------------| 
D#|---------------------------------10----------------------------| 
A#|-/12-0-10h12-0-12-0-12-0-10h12-0----12-14-10-------------------| 
F |---------------------------------------------------------------| 
A#|---------------------------------------------------------------| 
        x       x    x    x       x    x  x 


C |---------------------------------------------------------------| 
G |---------------------------------------------------------------| 
D#|-141414-14------10---h9b---------------------------------------| 
A#|-----------12--------------10~---------------------------------| 
F |---------------------------------------------------------------| 
A#|---------------------------------------------------------------| 


   3:07 
C |-------------15/17-------15/17---------------------------------| 
G |----------------------18-------15----17------------------------| 
D#|-------14-17-------15-------------14----15---------------------| 
A#|-12-15-------------------------------------14------------------| 
F |----------------------------------------------15---------------| 
A#|---------------------------------------------------------------| 



C |-------------15/17-------17----20-------17---------------------| 
G |----------------------18----18---------------------------------| 
D#|-------14-17-------17-------------17-17------------------------| 
A#|-------------------------------------------15------------------| 
F |-12-15----------------------------------------17---------------| 
A#|---------------------------------------------------------------| 



C |--------------------17---------17-15h17p15---------------------| 
G |-/18---15------15--------18/15----------------15~--------------| 
D#|----------17-------------------------------17~-----------------| 
A#|---------------------------------------------------------------| 
F |---------------------------------------------------------------| 
A#|---------------------------------------------------------------| 



C |-------------------/20---17h18p17------------------------------| 
G |-/18---15------15-----------------18---17~---------------------| 
D#|----------17---------------------------------------------------| 
A#|---------------------------------------------------------------| 
F |---------------------------------------------------------------| 
A#|---------------------------------------------------------------| 


   3:18 
C |---------------------------------------------------------------| 
G |---------------------------------------------------------------| 
D#|----------9b------14-------------------------------------------| 
A#|-------------12--------14b---10-12-----------------------------| 
F |-10-12-13--------------------------12-10-----------------------| 
A#|---------------------------------------------------------------| 
    x  x  x                     x  x  x  x 


C |---------------------------------------------------------------| 
G |---------------------------------------------------------------| 
D#|----------9b------14-------------------------------------------| 
A#|-------------12--------14b-------------------------------------| 
F |-10-12-13------------------------------------------------------| 
A#|---------------------------------------------------------------| 
    x  x  x                      

   3:24 x3 
C |-10------------8-10--------------------------------------------| 
G |------8---10----------8---10---10-6----------------------------| 
D#|----7---7----7------7---7----7------7--------------------------| 
A#|---------------------------------------------------------------| 
F |---------------------------------------------------------------| 
A#|---------------------------------------------------------------| 



C |-10------------8-10------------8-10----------------------------| 
G |------8---10----------8---10-----------------------------------| 
D#|----7---7----7------7---7----7------7--------------------------| 
A#|---------------------------------------------------------------| 
F |---------------------------------------------------------------| 
A#|---------------------------------------------------------------| 


   3:40 x2 
C |---------------------------------------------------------------| 
G |---------------------------------------------------------------| 
D#|---------------------------------------------------------------| 
A#|---------------------------------------------------------------| 
F |-00-0000-00-00-0000-00-000000-0000-00-00-0000-00-0-0-----------| 
A#|-00-0000-00-00-0000-00-000000-0000-00-00-0000-00-0-0-----------| 
    xx xxxx xx xx xxxx xx xxxxxx xxxx xx xx xxxx xx x x 
		  

See also:

tabs Deep Purple - Sometimes a Feel Like Screaming tabs Deep Purple - Mistreated tabs Deep Purple - Smoke on the Water (ver. 2) tabs Ira! - Vitrine Viva tabs Doa - Sexyest Girl tabs Deep Purple - Ted The Mechanic
e-chords

Other versions:

tabs Erra - Dreamwalkers
auto scroll beats size up size down change color hide chords drawings
tab show chords e-chords YouTube Clip e-chords hide all tabs e-chords go to top tab

share with facebook