Eric Clapton

home > Eric Clapton

Communion Theme Tab

Eric Clapton

Difficulty: nolevelnolevel

by fernsantana

tuner correct add songbook print version text version save to e-mail
chordsukulelecavacokeyboardtabbassdrumsharmonicsflute Guitar Pro
chords

Communion Theme

  		                        1989 Communion Sound Track  
                            ''Communion Theme'' 
                         Performed by Eric Clapton 
                                 For Randy =D 

Delay is used throughout song but you can just Vibrato instead in those parts. 

Key 
~ Let Ring 
b Bend 
V Vibrato 

E |---------------------------------|------------------------------| 
B |---------------------------------|------------------------------| 
G |-12--17--14~---------------------|------------------------------| 
D |---------------------------------|-15--13--17~------------------| 
A |---------------------------------|------------------------------| 
E |---------------------------------|------------------------------| 

E |---------------------------------|------------------------------| 
B |---------------------------------|------------------------------| 
G |-14------------------------------|------------------------------| 
D |-----15--------------------------|-12--14--15--15--11-----------| 
A |---------14~---------------------|------------------------------| 
E |---------------------------------|------------------------------| 

E |---------------------------------|------------------------------| 
B |-13b---15--------15b--13V--13----|-----18~---12~----------------| 
G |----------17------------------15-|-14---------------------------| 
D |---------------------------------|------------------------------| 
A |---------------------------------|------------------------------| 
E |---------------------------------|------------------------------| 

E |---------------------------------|------------------------------| 
B |---------------------------------|------------------------------| 
G |---------------------------------|-12--17--14~------------------| 
D |-12--14--15~--15--11--12---------|------------------------------| 
A |---------------------------------|------------------------------| 
E |---------------------------------|------------------------------| 

E |---------------------------------|------------------------------| 
B |---------------------------------|-17b--15v---------------------| 
G |----------16b--16b--15~----------|-----------14--16b------------| 
D |-15--13--------------------------|------------------------------| 
A |---------------------------------|------------------------------| 
E |---------------------------------|------------------------------| 

E |---------------------------------|------------------------------| 
B |---------------------------------|------------------------------| 
G |-15--14--------------------------|------------------------------| 
D |---------15----------------------|-12--14--15~----15------------| 
A |-------------14~-----------------|---------------------19-------| 
E |---------------------------------|------------------------------| 

E |---------------------------------|------------------------------| 
B |-15b--15V--13~----18b--15V--15b--|-13~--------------17--14------| 
G |---------------------------------|-------------13---------------| 
D |---------------------------------|------------------------------| 
A |---------------------------------|------------------------------| 
E |---------------------------------|------------------------------| 

E |---------------------------------|------------------------------| 
B |---------------------------------|------------------------------| 
G |---------------------------------|-12--17--14~------13-----17b~-| 
D |-12--14--15~-----15\--11--12~----|----------------------16------| 
A |---------------------------------|------------------------------| 
E |---------------------------------|------------------------------| 

E |---------------------------------|------------------------------| 
B |---------------------------------|------------------------------| 
G |-17p15~--------------------------|--------------------16B~------| 
D |---------19~---------------------|-17--15--19~------------------| 
A |---------------------------------|------------------------------| 
E |---------------------------------|------------------------------| 

E |---------------------------------|------------------------------| 
B |---------------------------------|------------------------------| 
G |-12------------------------------|-12--17--14~------------------| 
D |-----15--12~-----16--12~---------|------------------------------| 
A |---------------------------------|------------------------------| 
E |---------------------------------|------------------------------| 
	  

Search Paypal
auto scroll beats size up size down change color hide chords drawings
tab show chords e-chords YouTube Clip e-chords hide all tabs e-chords go to top tab