Eric Clapton

Cocaine (ver. 2)

Eric Clapton

tabs Expert expert

by  CDF DA GUITARRA

save to print version add songbook text version e-mail correct tuner
chordsukulelecavacokeyboardtabbassdrumsharmonicaflute Guitar Pro
close

there isn't a video lesson for this song

chords

Cocaine (ver. 2)

	  		Artista: Eric Clapton 
Música :Cocaine  
 
Riff 1: 2x 
       
e|-----------------| 
b|-----------------| 
G|-9-9-9-9---------| 
D|-9-9-9-9---(2)-0-| 
A|-7-7-5-7-0-------| 
E|-----------------| 
 
Riff 2: 
           
e|------------| 
b|------------| 
G|-9--7--5--4-| 
D|-9--7--5--4-| 
A|-7--5--3--2-| 
E|------------| 
 
Outro: 
 
e|--12--| 
b|--14--| 
G|--14--| 
D|------| 
A|------| 
E|------| 
 
Solo:           
                                                     4x   
e|-----------------------------------------------|--------|---------------------| 
b|-----------------------------------------------|--------|---------------------| 
G|----9-12-(12^)-9----9----9-9----9-12-12^-9-----|-14-----|-14^-12--------------| 
D|-12--------------12---12-----12------------12\-|----12^-|--------12-14-14-12--| 
A|-----------------------------------------------|--------|---------------------| 
E|-----------------------------------------------|--------|---------------------| 
 
e|-----------12--------------------|-----------------|--------------------------| 
b|--------12----15-12--------------|-----------------|-25-----------------------| 
G|-14-14^-------------14^-14-12-14-|-12--------------|----14^-14^/-12----12-----| 
D|---------------------------------|----14-14-12^-14-|----------------14----12--| 
A|---------------------------------|-----------------|--------------------------| 
E|---------------------------------|-----------------|--------------------------| 
 
e|-----------------------|--------12-12-----------------------------------------| 
b|-----------------------|-----12----15-12------------------12-15-15-15----15---| 
G|-------12----------12^-|-12^-------------14^-14-12----14^----------14-14-14---| 
D|-14-14----14-12-14-----|---------------------------14-------------------------| 
A|-----------------------|------------------------------------------------------| 
E|-----------------------|------------------------------------------------------| 
 
e|--------|-12------------------------------|----------------------|------------| 
b|-12/----|----15-15^-15^----12----12-------|----------12^-12^/----|------------| 
G|-12/----|-------14^-14^-14-12----12-------|----12----12^-12^/----|------------| 
D|-----14-|---------------------14----14-12-|-14-12-14----------14-|------------| 
A|--------|---------------------------------|----------------------|-12/14-14---| 
E|--------|---------------------------------|----------------------|------------| 
                                                          2x       2x       2x 
e|----------------------------|-----------------------|-12-----|-12-12--|-12----| 
b|----------------------------|-------12-14^-14-12----|----15^-|----15^-|-------| 
G|-12----12-12----12-12-------|-------12-14^-14-12----|--------|--------|---14^-| 
D|-12----12-12----12-14/12-14-|-14-14--------------14-|--------|--------|-------| 
A|----14-------14-------------|-----------------------|--------|--------|-------| 
E|----------------------------|-----------------------|--------|--------|-------| 
                                    2x 
e|-------------|----------------|-----12-|-12---------12-12-------|-------------| 
b|-------------|----------------|-15^----|----15^-15^-------15-12-|-------------| 
G|-14^14-12----|----------------|--------|------------------------|--14^-14-12--| 
D|----------14-|-12-14-14-12-14-|--------|------------------------|-------------| 
A|-------------|----------------|--------|------------------------|-------------| 
E|-------------|----------------|--------|------------------------|-------------| 
 
e|-----------------12-------------------|-----12-----12-------------------------| 
b|--------------------15-12-------------|-15^----15^----15-12-----15------------| 
G|----12-14-14^-14----------14^14/12----|---------------------14^----14^14-12---| 
D|-14--------------------------------14-|---------------------------------------| 
A|--------------------------------------|---------------------------------------| 
E|--------------------------------------|---------------------------------------| 
     3x                    E D E D 
e|--------|--------------|---------|--------------------------------------------| 
b|--------|--------------|---------|--------------------------------------------| 
G|-15-----|-12-14^14-14^-|---------|-------12----14/12----14-12----12/------12^-| 
D|----34^-|--------------|---------|-12/14----14-------14-------14-----14-------| 
A|--------|--------------|---------|--------------------------------------------| 
E|--------|--------------|---------|--------------------------------------------| 
 
e|----------------------|----------------------------|-------------12-----------| 
b|----------------------|----------------------------|----------12-----15--12---| 
G|----------12----------|-----------12-14/12-14^-12^-|-14^-14^------------------| 
D|-14-12-14----14-12-14-|-14^-14^14------------------|--------------------------| 
A|----------------------|----------------------------|--------------------------| 
E|----------------------|----------------------------|--------------------------| 
 
e|--------------------------------------------------|---------------------------| 
b|--------------------------------------------------|---------------------------| 
G|-14^-14/12-14/12----------------12-12-------------|---------------12/---------| 
D|-----------------14-14-12-14-14-------14/12-14-12-|-12-----12/14--14/---------| 
A|--------------------------------------------------|-12/14---------------------| 
E|--------------------------------------------------|---------------------------| 
 
Introdução: riff 1 
 
Riff 1: 
 
If you wanna hang out, you've gotta take her out: Cocaine 
If you wanna get down, get down on the ground: Cocaine 
 
Riff 3: 
 
She's alright, 
She's alright,  
She's alright, 
Cocaine 
 
Riff 1: 
 
If you got that lose, you wanna kick them blues: Cocaine 
When your day is done, and you wanna ride on Cocaine 
 
Riff 2: 
 
She's alright,  
She's alright, 
She's alright, 
Cocaine 
 
Riff 1: 
 
If your day is gone, and you wanna ride on: Cocaine 
Don't forget this fact: You can't get it back: Cocaine 
 
Riff 2: 
 
She's alright, 
She's alright, 
She's alright, 
Ccocaine 
 
Fim. 

		  

Full key step upFull key step up
Half key step upHalf key step up
Half key step downHalf key step down
Full key step downFull key step down
hide glossary

See also:

tabs Deep Purple - Smoke on the Water (solo) tabs Eagles - Take It Easy tabs Dire Straits - Sultans of Swing tabs White Stripes - the seven nation army tabs Yes - Roundabout tabs Queen - Love of my Life
e-chords

Other versions:

tabs The Cruel Sea - Cocaine tabs Fidlar - Cocaine tabs Eric Clapton - Cocaine (tab) tabs Eric Clapton - Cocaine (ver. 2) tabs Townes Van Zandt - Cocaine Blues tabs Johnny Cash - Cocaine Blues (live)
auto scroll beats size up size down change color hide chords drawings
tab show chords e-chords YouTube Clip e-chords hide all tabs e-chords go to top tab

share