Eric Clapton

home > Eric Clapton

Circus Tab

Eric Clapton

Difficulty: ExpertExpert

tuner correct add songbook print version text version save to e-mail
chordsukulelecavacokeyboardtabbassdrumsharmonicsflute Guitar Pro
chords

Circus

Year: 1998 - Album: Pilgrim

  		    Intro 
  Q=100 
  Amaj7sus2/E 
 4/4 
  Gtr II 
  W                               W 
  | 
  / 
 
  Gtr I 
  E S S +S  S E S S S S +S  S E   E E +S  S E S S S S +S  S E 
|-------------------------------|-----------------------------| 
|---0h5-(5)-----0h5---------5---|---0-(0)-----4p0---------0---| 
|-----------6---------6-(6)-----|---------6---------6-(6)-----| 
|---6---------6-----6---------6-|---4-(4)---4-----4---------4-| 
|-0------0------0--------0------|-0----0------0--------0------| 
|-------------------------------|-----------------------------| 
  Q      Q      Q        Q        Q    Q      Q        Q 
 
 
  Amadd2add6/E 
  W                             W 
  | 
  / 
 
  E S S +S  S E E S S +S  S E   E S S +S  S E E E +S  S E 
|-----------------------------|---------------------------|| 
|---4p0-(0)-----4---------4---|---4h5-(5)-------4-(4)-----|| 
|-----------5-------5-(5)-----|-----------6-----------4---|| 
|---4---------4---4---------4-|---4h6-(6)---6---4-(4)---4-|| 
|-0------0------0------0------|-4------4------2----2------|| 
|-----------------------------|---------------------------|| 
  Q      Q      Q      Q        Q      Q      Q    Q 
 
 
  Amaj7sus2/E                       A6add9/E 
  W                                 W 
  |                                 | 
  /                                 / 
 
  E S S +S   S  E S S S S +S  S E   E E +S  S E S S S S +S  S E 
|---------------------------------|-----------------------------| 
|---0h5-(5)-------0h5---------5---|---0-(0)-----4p0---------0---| 
|------------6----------6-(6)-----|---------6---------6-(6)-----| 
|---6-----------6-----6---------6-|---4-(4)---4-----4---------4-| 
|-0------0--------0--------0------|-0----0------0--------0------| 
|---------------------------------|-----------------------------| 
| Q      Q        Q        Q        Q    Q      Q        Q 
| 
| Gtr III 
| ~~~~~~~~~~~~~~                    ~ 
| H         +Q.     S S             W 
|---------------------------------|-----------------------------| 
|-9---------(9)-----7s9-----------|-7---------------------------| 
|---------------------------------|-----------------------------| 
|---------------------------------|-----------------------------| 
|---------------------------------|-----------------------------| 
|---------------------------------|-----------------------------| 
 
 
  Amadd2add6/E 
   W                                 W 
   | 
   / 
 
   E  S S +S  S  E E  S  S +S  S E   E  S  S  +S S  E E   E  +S   S  E 
|----------------------------------|-----------------------------------| 
|-----4p0-(0)------4-----------4---|----4h=5--(5)---------4--(4)-------| 
|-------------5----------5-(5)-----|-------------6----------------4----| 
|-----4----------4----4----------4-|----4h=6--(6)---6-----4--(4)-----4-| 
|--0-------0-------0--------0------|-4---------4------2-------2--------| 
|----------------------------------|-----------------------------------| 
|  Q       Q       Q        Q        Q         Q      Q       Q 
| 
|             ~~~~~~~~~~~ 
|                                              |-3--| 
| +E  a E +S  E. Q   +S  S  e        Q.        S S  S E.  S  +E   E 
|----------------------------------|-----------------------------------| 
|-(7)-5s7-(7)-7--7---(7)-7s=9------|-5---------5h7p=5s4----------------| 
|----------------------------------|----------------------6--(6)-(4)---| 
|----------------------------------|-----------------------------------| 
|----------------------------------|-----------------------------------| 
|----------------------------------|-----------------------------------| 
| 
| Gtr IV 
|  W                                 E  E +S   S E  E E  +S   S   E 
|----------------------------------|-----------------------------------| 
|----------------------------------|----5-(5)---------4--(4)-----------| 
|----------------------------------|-----------6--------------4--------| 
|----------------------------------|----6-(6)----6\---4--(4)------4----| 
|----------------------------------|-4-----4--------2-----2------------| 
|----------------------------------|-----------------------------------| 
                                     Q     Q        Q     Q 
 
 
  E  S S +S  S E  S S S S +S  S E   E E +S  S E S S S S +S  S E 
|---------------------------------|-----------------------------| 
|----0h5-(5)------0h5---------5---|---0-(0)-----4p0---------0---| 
|------------6----------6-(6)-----|---------6---------6-(6)-----| 
|----6---------6------6---------6-|---4-(4)---4-----4---------4-| 
|-0-------0-------0--------0------|-0----0------0--------0------| 
|---------------------------------|-----------------------------| 
| Q       Q       Q        Q        Q    Q      Q        Q 
| 
| ~~                                ~ 
| H.                      +S  S E   W 
|---------------------------------|-----------------------------| 
|-9-----------------------(9)-7s9-|-7---------------------------| 
|---------------------------------|-----------------------------| 
|---------------------------------|-----------------------------| 
|---------------------------------|-----------------------------| 
|---------------------------------|-----------------------------| 
| 
| E  E   +S  S E  E   E   +S  S E   W 
|---------------------------------|-----------------------------| 
|----5---(5)----------4---(4)-----|-----------------------------| 
|------------6----------------4---|-----------------------------| 
|----6---(6)---6\-----4---(4)---4-|-----------------------------| 
|-4-------4-------2--------2------|-----------------------------| 
|---------------------------------|-----------------------------| 
  Q       Q       Q        Q 
 
 
  E S S +S  S  E E  S  S +S  S E   E  S S +S S E E  E +S  S E 
|--------------------------------|----------------------------|| 
|---4p0-(0)------4-----------4---|----4h5-(5)-------4-(4)-----|| 
|-----------5----------5-(5)-----|-----------6------------4---|| 
|---4----------4----4----------4-|----4h6-(6)--6----4-(4)---4-|| 
|-0------0-------0--------0------|-4-------4-----2-----2------|| 
|--------------------------------|----------------------------|| 
| Q      Q       Q        Q        Q       Q     Q     Q 
| 
|           ~~~~~ 
|                                          |-3-| 
| E a E +S  E. Q   +S  S  e        Q.      S S S E. S +E  E 
|--------------------------------|----------------------------|| 
|---5s7-(7)-7--7---(7)-7s=9------|-5-------5h7p5s4------------|| 
|--------------------------------|------------------6-(6)-4---|| 
|--------------------------------|----------------------------|| 
|--------------------------------|----------------------------|| 
|--------------------------------|----------------------------|| 
 
 
 1st Verse 
  E S S +S  S E S S S S +S  S E   E E +S  S E S S S S +S  S E 
|-------------------------------|-----------------------------| 
|---0h5-(5)-----0h5---------5---|---0-(0)-----4p0---------0---| 
|-----------6---------6-(6)-----|---------6---------6-(6)-----| 
|---6---------6-----6---------6-|---4-(4)---4-----4---------4-| 
|-0------0------0--------0------|-0----0------0--------0------| 
|-------------------------------|-----------------------------| 
| Q      Q      Q        Q        Q    Q      Q        Q 
| 
| ~ 
| W                                             W 
|-------------------------------|-----------------------------| 
|-------------------------------|-----------------------------| 
|-6-----------------------------|-----------------------------| 
|-------------------------------|-----------------------------| 
|-------------------------------|-----------------------------| 
|-------------------------------|-----------------------------| 
 
 
  E S S +S  S E E S S +S  S E   E S S +S  S E  E S S +S  S E 
|-----------------------------|------------------------------| 
|---4p0-(0)-----4---------4---|---4h5-(5)--------2h4-(4)-----| 
|-----------5-------5-(5)-----|-----------6--------------4---| 
|---4---------4---4---------4-|---4h6-(6)---6----2h4-(4)---4-| 
|-0------0------0------0------|-4------4-------2------2------| 
|-----------------------------|------------------------------| 
| Q      Q      Q      Q        Q      Q       Q      Q 
| 
| W                             E E   +S  S E  E E   +S  S E 
|-----------------------------|------------------------------| 
|-----------------------------|---5---(5)--------4---(4)-----| 
|-----------------------------|-----------6--------------4---| 
|-----------------------------|---6---(6)---6\---4---(4)---4-| 
|-----------------------------|-4------4-------2------2------| 
|-----------------------------|------------------------------| 
                                Q      Q       Q      Q 
 
 
  E S S +S  S E S S S S +S  S E   E E +S  S E S S S S +S  S E 
|-------------------------------|-----------------------------| 
|---0h5-(5)-----0h5---------5---|---0-(0)-----4p0---------0---| 
|-----------6---------6-(6)-----|---------6---------6-(6)-----| 
|---6---------6-----6---------6-|---4-(4)---4-----4---------4-| 
|-0------0------0--------0------|-0----0------0--------0------| 
|-------------------------------|-----------------------------| 
  Q      Q      Q        Q        Q    Q      Q        Q 
 
 
  E S S +S  S E E S S +S  S E   E S S +S  S E  E S S +S  S E 
|-----------------------------|------------------------------| 
|---4p0-(0)-----4---------4---|---4h5-(5)--------2h4-(4)-----| 
|-----------5-------5-(5)-----|-----------6--------------4---| 
|---4---------4---4---------4-|---4h6-(6)---6----2h4-(4)---4-| 
|-0------0------0------0------|-4------4-------2------2------| 
|-----------------------------|------------------------------| 
| Q      Q      Q      Q        Q      Q       Q      Q 
| 
| Gtr III 
| W                             E E   +S  S E  E E   +S  S E 
|-----------------------------|------------------------------| 
|-----------------------------|---5---(5)--------4---(4)-----| 
|-----------------------------|-----------6--------------4---| 
|-----------------------------|---6---(6)---6\---4---(4)---4-| 
|-----------------------------|-4------4-------2------2------| 
|-----------------------------|------------------------------| 
                                Q      Q       Q      Q 
 
 
  E S S +S  S E S S S S +S  S E   E E +S  S E S S S S +S  S E 
|-------------------------------|-----------------------------| 
|---0h5-(5)-----0h5---------5---|---0-(0)-----4p0---------0---| 
|-----------6---------6-(6)-----|---------6---------6-(6)-----| 
|---6---------6-----6---------6-|---4-(4)---4-----4---------4-| 
|-0------0------0--------0------|-0----0------0--------0------| 
|-------------------------------|-----------------------------| 
  Q      Q      Q        Q        Q    Q      Q        Q 
 
 
  E S S +S  S E E S S +S  S E   E S S +S  S E  E S S +S  S E 
|-----------------------------|------------------------------| 
|---4p0-(0)-----4---------4---|---4h5-(5)--------2h4-(4)-----| 
|-----------5-------5-(5)-----|-----------6--------------4---| 
|---4---------4---4---------4-|---4h6-(6)---6----2h4-(4)---4-| 
|-0------0------0------0------|-4------4-------2------2------| 
|-----------------------------|------------------------------| 
| Q      Q      Q      Q        Q      Q       Q      Q 
| 
| Gtr III 
| W                             E E   +S  S E  E E   +S  S E 
|-----------------------------|------------------------------| 
|-----------------------------|---5---(5)--------4---(4)-----| 
|-----------------------------|-----------6--------------4---| 
|-----------------------------|---6---(6)---6\---4---(4)---4-| 
|-----------------------------|-4------4-------2------2------| 
|-----------------------------|------------------------------| 
                                Q      Q       Q      Q 
 
 
  E S S +S  S E S S S S +S  S E   E E +S  S E S S S S +S  S E 
|-------------------------------|-----------------------------| 
|---0h5-(5)-----0h5---------5---|---0-(0)-----4p0---------0---| 
|-----------6---------6-(6)-----|---------6---------6-(6)-----| 
|---6---------6-----6---------6-|---4-(4)---4-----4---------4-| 
|-0------0------0--------0------|-0----0------0--------0------| 
|-------------------------------|-----------------------------| 
  Q      Q      Q        Q        Q    Q      Q        Q 
 
 
  E S S +S  S E E S S +S  S E   E S S +S  S E  E S S +S  S E 
|-----------------------------|------------------------------|| 
|---4p0-(0)-----4---------4---|---4h5-(5)--------2h4-(4)-----|| 
|-----------5-------5-(5)-----|-----------6--------------4---|| 
|---4---------4---4---------4-|---4h6-(6)---6----2h4-(4)---4-|| 
|-0------0------0------0------|-4------4-------2------2------|| 
|-----------------------------|------------------------------|| 
| Q      Q      Q      Q        Q      Q       Q      Q 
| 
| Gtr III 
| W                             E E   +S  S E  E E   +S  S E 
|-----------------------------|------------------------------|| 
|-----------------------------|---5---(5)--------4---(4)-----|| 
|-----------------------------|-----------6--------------4---|| 
|-----------------------------|---6---(6)---6\---4---(4)---4-|| 
|-----------------------------|-4------4-------2------2------|| 
|-----------------------------|------------------------------|| 
                                Q      Q       Q      Q 
 
 
 1st Chorus 
  E E +S  S   E  E  S S +S  S E   E E +S  S   E  E  S S +S  S E 
|-------------------------------|-------------------------------| 
|---2-(2)--------2----------2---|---4-(4)--------4----------4---| 
|---------1-----------1-(1)-----|---------4-----------4-(4)-----| 
|---2-(2)-----2--2--2---------2-|---4-(4)-----4--4--4---------4-| 
|-------------------------------|-------------------------------| 
|-------------------------------|-------------------------------| 
| 
|   Gtr III 
|                ~~~                        ~~   ~~~ 
| Q    E    a E +H                Q    E    a E +H 
|-------------------------------|-------------------------------| 
|-------------------------------|-------------------------------| 
|-----------4h6-(6)-------------|-----------6h8-(8)-------------| 
|-------------------------------|-------------------------------| 
|-------------------------------|-------------------------------| 
|-------------------------------|-------------------------------| 
 
 
  S S S S +S  S E   +S  S S S  S  S E 
|------------------------------5--------| 
|---4---------4---------4---------4-----| 
|-------2-(2)---------------2-(2)-------| 
|-----4---------4---(4)---4---------4---| 
|-3--------3---------3---------3--------| 
|---------------------------------------| 
| Q        Q         Q         Q 
| 
| E   E   +E    E a  E.     S +E    S S 
|---------------------------------------| 
|-----4---(4)---5-5s=7------5-(5)---5s4-| 
|---------------------------------------| 
|---------------------------------------| 
|---------------------------------------| 
|---------------------------------------| 
 
 
  E S S +S  S E  E  S S +S  S E   E E +S  S   E  E  S S +S  S E 
|-------------------------------|-------------------------------| 
|---4h5-(5)---------2h4-(4)-----|---2-(2)--------2----------2---| 
|-----------6---------------4---|---------1-----------1-(1)-----| 
|---4h6-(6)---6\----2h4-(4)---4-|---2-(2)-----2--2--2---------2-| 
|-4------4-------2-------2------|-0----0---------0-------0------| 
|-------------------------------|-------------------------------| 
| Q      Q       Q       Q        Q    Q         Q       Q 
| 
|                                             ~~~~~~ 
| E S S +S  S E  E.   S +E    E   Q    E    a E +H 
|-----0-(0)---0-----------------|-------------------------------| 
|---4-------4----4--------------|-------------------------------| 
|-6-------------------6-(6)-----|-----------4s6-(6)-------------| 
|-----------------------------4-|-------------------------------| 
|-------------------------------|-------------------------------| 
|-------------------------------|-------------------------------| 
| 
| Gtr IV 
| E E   +S  S E  E  E   +S  S E   W 
|-------------------------------|-------------------------------| 
|---5---(5)---------4---(4)-----|-------------------------------| 
|-----------6---------------4---|-------------------------------| 
|---6---(6)---6\----4---(4)---4-|-------------------------------| 
|-4------4-------2-------2------|-------------------------------| 
|-------------------------------|-------------------------------| 
  Q      Q       Q       Q 
 
 
  E E +S  S E  E  S S +S  S E 
|-----------------------------| 
|---4-(4)------4----------4---| 
|---------5---------5-(5)-----| 
|---4-(4)---4--4--4---------4-| 
|-----------------------------| 
|-4----4-------4-------4------| 
| Q    Q       Q       Q 
| 
|           ~~~~~~ 
| Q    E  a E +H 
|-----------------------------| 
|-----------------------------| 
|---------3s5-(5)-------------| 
|-----------------------------| 
|-----------------------------| 
|-----------------------------| 
 
 
  E S S +S  S  E  +E E +S  S  E   E E +S  S E H 
|-------------------------------|-------------2-----------|| 
|-----3-(3)----------3-(3)------|---2-(2)-----2-----------|| 
|-----------2--------------2----|---------1---2-----------|| 
|---4----------4--(4)4-(4)----4-|---2-(2)---2-0--(0)h=(2)-|| 
|-2------2----------------------|-0----0------------------|| 
|------------------0----0-------|-------------------------|| 
| Q      Q         Q    Q         Q    Q      Q  +E.   S 
| 
| a H         +E   a E +S  E.     H         H 
|-------------------------------|-------------------------|| 
|-------------------------------|-------------------------|| 
|-5s7---------(7)--7s9-(9)-7----|-6-----------------------|| 
|-------------------------------|-------------------------|| 
|-------------------------------|-------------------------|| 
|-------------------------------|-------------------------|| 
 
 
 Interlude 
  E     S S +S  S E  S  S S S +S  S   E   E   E   +S  S E   S S S S +S  S E 
|---------------------------------------|--------------------------------------| 
|-------0h5-(5)------0h=5---------5-----|-----0---(0)-------4p0---------0------| 
|---------------6-----------6-(6)-------|-------------6-----------6-(6)--------| 
|-------6---------6-------6-----------6-|-----4---(4)---4-------4---------4----| 
|-0----------0-------0---------0--------|-0--------0--------0--------0---------| 
|---------------------------------------|--------------------------------------| 
| Q          Q       Q         Q          Q        Q        Q        Q 
| 
| Gtr III 
|    ~~~~~~~~~~~~~~~~~~~                  ~ 
| S  E.     +Q      +Q.             a E   W 
|---------------------------------------|--------------------------------------| 
|-7s=9------(9)-----(9)-------------7s9-|-7------------------------------------| 
|---------------------------------------|--------------------------------------| 
|---------------------------------------|--------------------------------------| 
|---------------------------------------|--------------------------------------| 
|---------------------------------------|--------------------------------------| 
| 
| Gtr IV 
| S  S  S S +S  S E  S  S S S  S  S   e   S S S S +S  S S S S E   S  S  S E 
|---(9)---9-(9)---9-----9------9--------|-9-----9-(9)---9-----9------9---------| 
|-------------------------9-------9-----|---7-------------7-------------7------| 
|-------9-------9---(9)-----9---------9-|-----8-------8-----8-----8-------8----| 
|---------------------------------------|--------------------------------------| 
|---------------------------------------|--------------------------------------| 
|---------------------------------------|--------------------------------------| 
 
 
  E     S S +S  S  E    E  S S +S  S E 
|----------------------------------------| 
|-------4p0-(0)---------4----------4-----| 
|---------------5------------5-(5)-------| 
|-------4----------4-------4---------4---| 
|-0----------0----------0-------0--------| 
|----------------------------------------| 
| Q          Q          Q       Q 
| 
|               ~~~~~~~~~~~~~~~~~~~ 
| E   a E   +S  E.      Q      +S  S E 
|----------------------------------------| 
|-----5s7---(7)-7-------7------(7)-7s9---| 
|----------------------------------------| 
|----------------------------------------| 
|----------------------------------------| 
|----------------------------------------| 
| 
| S S   S S +S  S  S S +E  S S  S  S S S 
|-8-------8-(8)----8-------8----8--------| 
|---7----------------7-(7)---------7-----| 
|-------8-------8------------8-------8s9-| 
|----------------------------------------| 
|----------------------------------------| 
|----------------------------------------| 
 
 
   E  S S +S  S E     E  E   +S  S  E 
|--------------------------------------| 
|-----4h5-(5)------------4---(4)-------| 
|-------------6------------------4-----| 
|-----4h6-(6)---6--------4---(4)----4--| 
|--4-------4----------2-------2--------| 
|--------------------------------------| 
|  Q       Q          Q       Q 
| 
|  ~~~ 
|               |-3-| 
|  Q.           S S S E.   S +E     E 
|--------------------------------------| 
|--5------------5h7p5s4----------------| 
|--------------------------6-(6)----4--| 
|--------------------------------------| 
|--------------------------------------| 
|--------------------------------------| 
| 
|  H                  E.   S +S  S  E 
|--9------------------7----9-(9)-9s11--| 
|--------------------------------------| 
|-(9)-----------------8----9-(9)-9s11--| 
|--------------------------------------| 
|--------------------------------------| 
|--------------------------------------| 
 
 
    E S S +S  S E  S  S S S +S  S E        E   E   +S  S E   S S S S +S  S E 
|----------------------------------------|-----------------------------------| 
|-----0h5-(5)------0h=5---------5--------|-----0---(0)-------4p0---------0---| 
|-------------6-----------6-(6)----------|-------------6-----------6-(6)-----| 
|-----6---------6-------6---------6------|-----4---(4)---4-------4---------4-| 
|---0------0-------0---------0-----------|-0--------0--------0--------0------| 
|----------------------------------------|-----------------------------------| 
|   Q      Q       Q         Q             Q        Q        Q        Q 
| 
|          ~~~~~~~~~~~                     ~ 
|                                 |-3--| 
| a Q      Q      +Q.             S  S S   W 
|----------------------------------------|-----------------------------------| 
|-7s9------9------(9)-------------9h10p9s|=7---------------------------------| 
|----------------------------------------|-----------------------------------| 
|----------------------------------------|-----------------------------------| 
|----------------------------------------|-----------------------------------| 
|----------------------------------------|-----------------------------------| 
| 
|   E S S +S  S E  S  S S S  E    E        S S S S +S  S S S S S S S  S  S E 
|---9---9-(9)---9-----9------9-----------|-9-----9-(9)---9-----9------9------| 
|-----------------------9----------------|---7-------------7-----7-------7---| 
|-----9-------9---(9)-----9-------9------|-----8-------8-----8-----8-------8-| 
|----------------------------------------|-----------------------------------| 
|----------------------------------------|-----------------------------------| 
|----------------------------------------|-----------------------------------| 
 
 
  E     S S +S  S  E   E    S S +S  S   E 
|-------------------------------------------| 
|-------4p0-(0)--------4------------4-------| 
|---------------5-------------5-(5)---------| 
|-------4----------4--------4-----------4---| 
|-0----------0---------0---------0----------| 
|-------------------------------------------| 
| Q          Q         Q         Q 
| 
| E   a E   +S  E.     E.     S +E    a E 
|-------------------------------------------| 
|-----5s7---(7)-7------7------7-(7)---7s9---| 
|-------------------------------------------| 
|-------------------------------------------| 
|-------------------------------------------| 
|-------------------------------------------| 
| 
| S S   S S +S  S  S S S  S S S  S  S   S S 
|-8-------8-(8)----8------8------8----------| 
|---7----------------7------7-------7-------| 
|-------8-------8------8------8---------8s9-| 
|-------------------------------------------| 
|-------------------------------------------| 
|-------------------------------------------| 
 
 
   E  S S +S  S E   E  E   +S  S  E 
|-----------------------------------|| 
|-----4h5-(5)----------4---(4)------|| 
|-------------6----------------4----|| 
|-----4h6-(6)---6------4---(4)----4-|| 
|--4-------4--------2-------2-------|| 
|-----------------------------------|| 
|  Q       Q        Q       Q 
| 
|  Q.           S S E.   S +E     E 
|-----------------------------------|| 
|--5------------7p5s4---------------|| 
|------------------------6-(6)----4-|| 
|-----------------------------------|| 
|-----------------------------------|| 
|-----------------------------------|| 
| 
|  H                E.   S +S  S  E 
|--9----------------7----9-(9)-9s11-|| 
|-----------------------------------|| 
|-(9)---------------8----9-(9)-9s11-|| 
|-----------------------------------|| 
|-----------------------------------|| 
|-----------------------------------|| 
 
 
 2nd Verse 
  E S S +S  S E S S S S +S  S E   E E +S  S E S S S S +S  S E 
|-------------------------------|-----------------------------| 
|---0h5-(5)-----0h5---------5---|---0-(0)-----4p0---------0---| 
|-----------6---------6-(6)-----|---------6---------6-(6)-----| 
|---6---------6-----6---------6-|---4-(4)---4-----4---------4-| 
|-0------0------0--------0------|-0----0------0--------0------| 
|-------------------------------|-----------------------------| 
| Q      Q      Q        Q        Q    Q      Q        Q 
| 
| Gtr III 
| W                               W 
|-9-----------------------------|-----------------------------| 
|-------------------------------|-----------------------------| 
|-------------------------------|-----------------------------| 
|-------------------------------|-----------------------------| 
|-------------------------------|-----------------------------| 
|-------------------------------|-----------------------------| 
 
 
  E S S +S  S E E S S +S  S E   E S S +S  S E  E S S +S  S E 
|-----------------------------|------------------------------| 
|---4p0-(0)-----4---------4---|---4h5-(5)--------2h4-(4)-----| 
|-----------5-------5-(5)-----|-----------6--------------4---| 
|---4---------4---4---------4-|---4h6-(6)---6----2h4-(4)---4-| 
|-0------0------0------0------|-4------4-------2------2------| 
|-----------------------------|------------------------------| 
| Q      Q      Q      Q        Q      Q       Q      Q 
| 
| W                             E E   +S  S E  E E   +S  S E 
|-----------------------------|------------------------------| 
|-----------------------------|---5---(5)--------4---(4)-----| 
|-----------------------------|-----------6--------------4---| 
|-----------------------------|---6---(6)---6\---4---(4)---4-| 
|-----------------------------|-4------4-------2------2------| 
|-----------------------------|------------------------------| 
                                Q      Q       Q      Q 
 
 
  E S S +S  S E S S S S +S  S E   E E +S  S E S S S S +S  S E 
|-------------------------------|-----------------------------| 
|---0h5-(5)-----0h5---------5---|---0-(0)-----4p0---------0---| 
|-----------6---------6-(6)-----|---------6---------6-(6)-----| 
|---6---------6-----6---------6-|---4-(4)---4-----4---------4-| 
|-0------0------0--------0------|-0----0------0--------0------| 
|-------------------------------|-----------------------------| 
  Q      Q      Q        Q        Q    Q      Q        Q 
 
 
  E S S +S  S E E S S +S  S E     E  S S +S  S E  E  S S +S  S E 
|-----------------------------|----------------------------------| 
|---4p0-(0)-----4---------4---|------4h5-(5)---------2h4-(4)-----| 
|-----------5-------5-(5)-----|--------------6---------------4---| 
|---4---------4---4---------4-|------4h6-(6)---6-----2h4-(4)---4-| 
|-0------0------0------0------|---4-------4-------2-------2------| 
|-----------------------------|----------------------------------| 
| Q      Q      Q      Q          Q       Q       Q       Q 
| 
| Gtr III 
| W                               E  E   +S  S E  E  E   +S  S E 
|-----------------------------|----------------------------------| 
|-----------------------------|------5---(5)---------4---(4)-----| 
|-----------------------------|--------------6---------------4---| 
|-----------------------------|------6---(6)---6\----4---(4)---4-| 
|-----------------------------|---4-------4-------2-------2------| 
|-----------------------------|----------------------------------| 
|                                 Q       Q       Q       Q 
| 
| Gtr IV 
| W                             a E.   S +E    E  E.   S +E    E 
|-----------------------------|----------------------------------| 
|-----------------------------|-7s9----7-(7)---5--4----5-(5)---4-| 
|-----------------------------|----------------------------------| 
|-----------------------------|----------------------------------| 
|-----------------------------|----------------------------------| 
|-----------------------------|----------------------------------| 
 
 
  E S S +S  S E S S S S +S  S E   E E +S  S E S S S S +S  S E 
|-------------------------------|-----------------------------| 
|---0h5-(5)-----0h5---------5---|---0-(0)-----4p0---------0---| 
|-----------6---------6-(6)-----|---------6---------6-(6)-----| 
|---6---------6-----6---------6-|---4-(4)---4-----4---------4-| 
|-0------0------0--------0------|-0----0------0--------0------| 
|-------------------------------|-----------------------------| 
| Q      Q      Q        Q        Q    Q      Q        Q 
| 
| W                               W 
|-------------------------------|-----------------------------| 
|-------------------------------|-----------------------------| 
|-6-----------------------------|-----------------------------| 
|-------------------------------|-----------------------------| 
|-------------------------------|-----------------------------| 
|-------------------------------|-----------------------------| 
 
 
  E S S +S  S E E S S +S  S E   E S S +S  S E  E S S +S  S E 
|-----------------------------|------------------------------| 
|---4p0-(0)-----4---------4---|---4h5-(5)--------2h4-(4)-----| 
|-----------5-------5-(5)-----|-----------6--------------4---| 
|---4---------4---4---------4-|---4h6-(6)---6----2h4-(4)---4-| 
|-0------0------0------0------|-4------4-------2------2------| 
|-----------------------------|------------------------------| 
| Q      Q      Q      Q        Q      Q       Q      Q 
| 
| W                             E E   +S  S E  E E   +S  S E 
|-----------------------------|------------------------------| 
|-----------------------------|---5---(5)--------4---(4)-----| 
|-----------------------------|-----------6--------------4---| 
|-----------------------------|---6---(6)---6\---4---(4)---4-| 
|-----------------------------|-4------4-------2------2------| 
|-----------------------------|------------------------------| 
                                Q      Q       Q      Q 
 
 
  E S S +S  S E S S S S +S  S E   E E +S  S E S S S S +S  S E 
|-------------------------------|-----------------------------| 
|---0h5-(5)-----0h5---------5---|---0-(0)-----4p0---------0---| 
|-----------6---------6-(6)-----|---------6---------6-(6)-----| 
|---6---------6-----6---------6-|---4-(4)---4-----4---------4-| 
|-0------0------0--------0------|-0----0------0--------0------| 
|-------------------------------|-----------------------------| 
  Q      Q      Q        Q        Q    Q      Q        Q 
 
 
  E S S +S  S E E S S +S  S E   E S S +S  S E  E S S +S  S E 
|-----------------------------|------------------------------|| 
|---4p0-(0)-----4---------4---|---4h5-(5)--------2h4-(4)-----|| 
|-----------5-------5-(5)-----|-----------6--------------4---|| 
|---4---------4---4---------4-|---4h6-(6)---6----2h4-(4)---4-|| 
|-0------0------0------0------|-4------4-------2------2------|| 
|-----------------------------|------------------------------|| 
| Q      Q      Q      Q        Q      Q       Q      Q 
| 
| Gtr III 
| W                             E E   +S  S E  E E   +S  S E 
|-----------------------------|------------------------------|| 
|-----------------------------|---5---(5)--------4---(4)-----|| 
|-----------------------------|-----------6--------------4---|| 
|-----------------------------|---6---(6)---6\---4---(4)---4-|| 
|-----------------------------|-4------4-------2------2------|| 
|-----------------------------|------------------------------|| 
                                Q      Q       Q      Q 
 
 
 2nd Chorus 
    Gtr I 
  E E +S  S   E  E  S S +S  S E   E E +S  S   E  E  S S +S  S E 
|-------------------------------|-------------------------------| 
|---2-(2)--------2----------2---|---4-(4)--------4----------4---| 
|---------1-----------1-(1)-----|---------4-----------4-(4)-----| 
|---2-(2)-----2--2--2---------2-|---4-(4)-----4--4--4---------4-| 
|-------------------------------|-------------------------------| 
|-------------------------------|-------------------------------| 
| 
|   Gtr III 
|                ~~~                        ~~   ~~~ 
| Q    E    a E +H                Q    E    a E +H 
|-------------------------------|-------------------------------| 
|-------------------------------|-------------------------------| 
|-----------4h6-(6)-------------|-----------6h8-(8)-------------| 
|-------------------------------|-------------------------------| 
|-------------------------------|-------------------------------| 
|-------------------------------|-------------------------------| 
 
 
  S S S S +S  S E   +S  S S S  S  S E 
|------------------------------5--------| 
|---4---------4---------4---------4-----| 
|-------2-(2)---------------2-(2)-------| 
|-----4---------4---(4)---4---------4---| 
|-3--------3---------3---------3--------| 
|---------------------------------------| 
| Q        Q         Q         Q 
| 
| E   E   +E    E a  E.     S +E    S S 
|---------------------------------------| 
|-----4---(4)---5-5s=7------5-(5)---5s4-| 
|---------------------------------------| 
|---------------------------------------| 
|---------------------------------------| 
|---------------------------------------| 
 
 
  E S S +S  S  E  E  S  S +S  S E   E  E +S  S E  E  S S +S  S E 
|---------------------------------|------------------------------| 
|---4h5-(5)----------2h=4-(4)-----|----2-(2)------2----------2---| 
|-----------6-----------------4---|----------1---------1-(1)-----| 
|---4h6-(6)----6\----2h=4-(4)---4-|----2-(2)---2--2--2---------2-| 
|-4------4--------2--------2------|-0-----0-------0-------0------| 
|---------------------------------|------------------------------| 
| Q      Q        Q        Q        Q     Q       Q       Q 
| 
| E E   +S  S  E  E  E    +S  S E   W 
|---------------------------------|------------------------------| 
|---5---(5)----------4----(4)-----|------------------------------| 
|-----------6-----------------4---|------------------------------| 
|---6---(6)----6\----4----(4)---4-|------------------------------| 
|-4------4--------2--------2------|------------------------------| 
|---------------------------------|------------------------------| 
| Q      Q        Q        Q 
| 
| Gtr IV 
|                                                 ~~~ 
| S E S +S  E. E. S +S  S  E        Q.       a E +H 
|---------------------------------|------------------------------| 
|-4-5-4-(4)-----------------------|------------------------------| 
|-----------6\-4--6-(6)-6s=8------|-6--------4s6-(6)-------------| 
|---------------------------------|------------------------------| 
|---------------------------------|------------------------------| 
|---------------------------------|------------------------------| 
 
 
  E E +S  S   E  E  S S +S  S E 
|-------------------------------| 
|---4-(4)--------4----------4---| 
|---------5-----------5-(5)-----| 
|---4-(4)-----4--4--4---------4-| 
|-------------------------------| 
|-4----4---------4-------4------| 
| Q    Q         Q       Q 
| 
|                ~~~ 
| Q    E    a E +H 
|-------------------------------| 
|-------------------------------| 
|-----------3s5-(5)-------------| 
|-------------------------------| 
|-------------------------------| 
|-------------------------------| 
 
 
  E S S +S  S  E  +E E +S  S  E   E E +S  S E H 
|-------------------------------|-------------2------|| 
|-----3-(3)----------3-(3)------|---2-(2)-----2------|| 
|-----------2--------------2----|---------1---2------|| 
|---4----------4--(4)4-(4)----4-|---2-(2)---2-0------|| 
|-2------2----------------------|-0----0-------------|| 
|------------------0----0-------|--------------------|| 
| Q      Q         Q    Q         Q    Q      H 
| 
| a H         +E   a E +S  E.     H         Q   E E 
|-------------------------------|--------------------|| 
|-------------------------------|--------------------|| 
|-5s7---------(7)--7s9-(9)-7----|-6---------------6--|| 
|-------------------------------|--------------------|| 
|-------------------------------|--------------------|| 
|-------------------------------|--------------------|| 
 
 
 2nd Interlude 
    E S S +S  S E    S  S S S +S  S  E 
|-----------------------------------------| 
|-----0h5-(5)--------0h=5---------5-------| 
|-------------6-------------6-(6)---------| 
|-----6---------6---------6----------6----| 
|---0------0---------0---------0----------| 
|-----------------------------------------| 
|   Q      Q         Q         Q 
| 
|   ~~~~~~~~~~~~~~~~~~~~ 
| a H               +Q.              S  S 
|-----------------------------------------| 
|-7s9---------------(9)--------------7s=9-| 
|-----------------------------------------| 
|-----------------------------------------| 
|-----------------------------------------| 
|-----------------------------------------| 
| 
| Gtr IV 
|   E S S  S  S S S  S  S S S  S  S  S  S 
|-------0-------0-------0------0----------| 
|-----0-------0------0------0-----5-(5)p0-| 
|----------6------6-------6----------6----| 
|-----------------------------------------| 
|-----------------------------------------| 
|-----------------------------------------| 
 
 
   E    E   +S  S E    S  S S S +S  S E 
|------------------------------------------| 
|-------0---(0)--------4p=0---------0------| 
|---------------6-------------6-(6)--------| 
|-------4---(4)---4---------4---------4----| 
|--0---------0---------0---------0---------| 
|------------------------------------------| 
|  Q         Q         Q         Q 
| 
|  ~~~ 
|  W 
|------------------------------------------| 
|--7---------------------------------------| 
|------------------------------------------| 
|------------------------------------------| 
|------------------------------------------| 
|------------------------------------------| 
| 
| +S  S S S +S  S S S +S  S S S +S  S S S 
|------------------------------------------| 
|-(0)-----0-(0)-----0-(0)-----0-(0)-----0--| 
|-----6---------6---------6---------6------| 
|-------4---------4---------4---------4----| 
|------------------------------------------| 
|------------------------------------------| 
 
 
   E      S S +S  S  E   E   S S +S  S E   E  S S +S  S E      E  E   +S  S E 
|----------------------------------------|-------------------------------------| 
|---------4p0-(0)--------4-----------4---|----4h5-(5)-------------4---(4)------| 
|-----------------5------------5-(5)-----|------------6-------------------4----| 
|---------4----------4-------4---------4-|----4h6-(6)---6---------4---(4)---4--| 
|--0-----------0---------0--------0------|-4-------4-----------2-------2-------| 
|----------------------------------------|-------------------------------------| 
|  Q           Q         Q        Q        Q       Q           Q       Q 
| 
|         ~~~~~~~~~~~~~~~~~~~~~~~~~~~      ~~ 
|                                                       |-3--| 
|  E    a E   +S  E.     Q       +S  S e   Q.           S  S S E.   S +E    E 
|----------------------------------------|-------------------------------------| 
|-------5s7---(7)-7------7-------(7)-7s9-|-5------------5h=7p5s4---------------| 
|----------------------------------------|--------------------------6-(6)---4--| 
|----------------------------------------|-------------------------------------| 
|----------------------------------------|-------------------------------------| 
|----------------------------------------|-------------------------------------| 
| 
| +S  S   S S  S  S  S S S S S S  S  S E   E  S S +S  S E      E  S S +S  S E 
|----------------------------------------|-------------------------------------| 
|-(0)-4--------4-------4-----4-------4---|----4h5-(5)-------------2h4-(4)------| 
|---------5-------5------5-----5---------|------------6-------------------4----| 
|-----------4--------4-----4------4------|----4h6-(6)---6\--------2h4-(4)---4--| 
|----------------------------------------|-4-------4-----------2-------2-------| 
|----------------------------------------|-------------------------------------| 
                                           Q       Q           Q       Q 
 
 
    E S S +S  S E S S S S +S  S  E      E   E   +S  S E    S  S S S +S  S E 
|-------------------------------------|---------------------------------------| 
|-----0h5-(5)-----0h5---------5-------|-----0---(0)--------4p=0---------0-----| 
|-------------6---------6-(6)---------|-------------6-------------6-(6)-------| 
|-----6---------6-----6----------6----|-----4---(4)---4---------4---------4---| 
|---0------0------0--------0----------|-0--------0---------0---------0--------| 
|-------------------------------------|---------------------------------------| 
|   Q      Q      Q        Q            Q        Q         Q         Q 
| 
|   ~~~~~~~~~~~~~~~~~ 
| a H             Q.             S  S   W 
|-------------------------------------|---------------------------------------| 
|-7s9-------------9-------------10p=9-|-7-------------------------------------| 
|-------------------------------------|---------------------------------------| 
|-------------------------------------|---------------------------------------| 
|-------------------------------------|---------------------------------------| 
|-------------------------------------|---------------------------------------| 
| 
|   E E   +S  S E S S S S +S  S  E      S S S S  S  S S S +S  S S S +S  S S S 
|-----0---(0)-0---------------0-------|---------------------------------------| 
|-----0---(0)-----4h5---5-(5)---------|---0------0------0-(0)-----0-(0)-0-----| 
|---------------6-4h6---6-(6)----6\---|-----6-------6---------6-----------6s5-| 
|---------------------6---------------|-------4-------4---------4-------------| 
|-------------------------------------|---------------------------------------| 
|-------------------------------------|---------------------------------------| 
 
 
   E    S S +S  S  E   E   S S +S  S E 
|--------------------------------------| 
|-------4p0-(0)--------4-----------4---| 
|---------------5------------5-(5)-----| 
|-------4----------4-------4---------4-| 
|--0---------0---------0--------0------| 
|--------------------------------------| 
|  Q         Q         Q        Q 
| 
|            ~~~~~~~~~~~~ 
|  E  a E   +S  E.     Q       +S  S E 
|--------------------------------------| 
|-----5s7---(7)-7------7-------(7)-7s9-| 
|--------------------------------------| 
|--------------------------------------| 
|--------------------------------------| 
|--------------------------------------| 
| 
| +E    E   +S  S  S S S S S S  E    E 
|--------------------------------------| 
|-------4---(4)----4-----4------4------| 
|-(5)----------------5-----5-----------| 
|---------------4------4-----4---------| 
|--------------------------------------| 
|--------------------------------------| 
 
 
  E  S S +S  S E     E    E   +S  S E 
|---------------------------------------|| 
|----4h5-(5)--------------4---(4)-------|| 
|------------6--------------------4-----|| 
|----4h6-(6)---6----------4---(4)---4---|| 
|-4-------4----------2---------2--------|| 
|---------------------------------------|| 
| Q       Q          Q         Q 
| 
|              |-3-| 
| Q.           S S S E.     S +E    E 
|---------------------------------------|| 
|-5------------5h7p5s4------------------|| 
|---------------------------6-(6)---4---|| 
|---------------------------------------|| 
|---------------------------------------|| 
|---------------------------------------|| 
| 
| E  S S +S  S E     S  S S S +S  S E 
|---------------------------------------|| 
|----4h5-(5)---------4------4-(4)-------|| 
|------------6----------4---------4-----|| 
|----4h6-(6)---6----------4---------4\--|| 
|---------------------------------------|| 
|---------------------------------------|| 
 
 
 3rd Chorus 
  E E +S  S E E S S +S  S E   E E +S  S E E S S +S  S E 
|---------------------------|---------------------------| 
|---2-(2)-----2---------2---|---4-(4)-----4---------4---| 
|---------1-------1-(1)-----|---------4-------4-(4)-----| 
|---2-(2)---2-2-2---------2-|---4-(4)---4-4-4---------4-| 
|---------------------------|---------------------------| 
|---------------------------|---------------------------| 
 
 
  S S S S +S  S E +S  S S S  S  S E 
|----------------------------5------| 
|---4---------4-------4---------4---| 
|-------2-(2)-------------2-(2)-----| 
|-----4---------4-(4)---4---------4-| 
|-3--------3-------3---------3------| 
|-----------------------------------| 
  Q        Q       Q         Q 
 
 
  E S S +S  S E  E S S +S  S E   E E +S  S E E S S +S  S E 
|------------------------------|---------------------------| 
|---4h5-(5)--------2h4-(4)-----|---2-(2)-----2---------2---| 
|-----------6--------------4---|---------1-------1-(1)-----| 
|---4h6-(6)---6\---2h4-(4)---4-|---2-(2)---2-2-2---------2-| 
|-4------4-------2------2------|-0----0------0------0------| 
|------------------------------|---------------------------| 
  Q      Q       Q      Q        Q    Q      Q      Q 
 
 
  E E +S  S E E S S +S  S E   E S S +S  S E +E  E +S  S E 
|---------------------------|-----------------------------| 
|---4-(4)-----4---------4---|-----3-(3)---------3-(3)-----| 
|---------5-------5-(5)-----|-----------2-------------2---| 
|---4-(4)---4-4-4---------4-|---4---------4-(4)-4-(4)---4-| 
|---------------------------|-2------2--------------------| 
|-4----4------4------4------|----------------0-----0------| 
  Q    Q      Q      Q        Q      Q       Q     Q 
 
 
                      2/8 
  E E +S  S E  H        W 
|-------------^2----||---------*| 
|---2-(2)-----^2----||---------*| 
|---1-(1)-1---^2----||---------*| 
|---2-(2)---2--0----||---------*| 
|-0----0------------||-(0)h(2)-*| 
|-------------------||---------*| 
  Q    Q       H        E.  S 
 
 
Duration Legend 
--------------- 
W - whole; H - half; Q - quarter; E - 8th; S - 16th; T - 32nd; X - 64th; a - acciaccatura 
+ - note tied to previous; . - note dotted; .. - note double dotted 
Uncapitalized letters represent notes that are staccato (1/2 duration) 
Irregular groupings are notated above the duration line 
Duration letters will always appear directly above the note/fret number it represents the 
duration for.  Duration letters with no fret number below them represent rests.  Multi- 
bar rests are notated in the form Wxn, where n is the number of bars to rest for.  Low 
melody durations appear below the staff 
 
Tablature Legend 
---------------- 
 h   - hammer-on 
 p   - pull-off 
 b   - bend 
 pb  - pre-bend 
 r   - bend release (if no number after the r, then release immediately) 
 /\  - slide into or out of (from/to "nowhere") 
 s   - legato slide 
 S   - shift slide 
  - natural harmonic 
{n}  - artificial harmonic 
n(n) - tapped harmonic 
 ~   - vibrato 
 tr  - trill 
 T   - tap 
 TP  - trem. picking 
 PM  - palm muting 
\n/  - tremolo bar dip; n = amount to dip 
 \n  - tremolo bar down 
 n/  - tremolo bar up 
/n\  - tremolo bar inverted dip 
 =   - hold bend; also acts as connecting device for hammers/pulls 
 <>  - volume swell (louder/softer) 
 x   - on rhythm slash represents muted slash 
 o   - on rhythm slash represents single note slash 
 
Misc Legend 
----------- 
 |  - bar 
||  - double bar 
||o - repeat start 
o|| - repeat end 
*|  - double bar (ending) 
 :  - bar (freetime) 
 $  - Segno 
 &  - Coda 
Tempo markers -  = BPM(8/16=s8/s16), where s8 = swing 8ths, s16 = swing 16ths 

	  

Search Paypal
auto scroll beats size up size down change color hide chords drawings
tab show chords e-chords YouTube Clip e-chords hide all tabs e-chords go to top tab