Eric Clapton

home > Eric Clapton

Breath Eternal Tab

Eric Clapton

Difficulty: nolevelnolevel

by fernsantana

tuner correct add songbook print version text version save to e-mail
chordsukulelecavacokeyboardtabbassdrumsharmonicsflute Guitar Pro
chords

Breath Eternal

  		E|-------------|---------|------------------------------------------ 
B|-------------|---------|------------------------------------------ 
G|-------------|-BATERIA-|------------------------------------------ 
D|------10--8--|---------|-------8/10\8~~--------------------------- 
A|--10--10--8--|---------|---------------------8^(9)8~-----6----8\\- 
E|--8----------|---------|--/8-8-----------6h8---------6h8---8--8\\- 

E|------------------------------------------ 
B|------------------------------------------ 
G|------------------------------------------ 
D|--/10-----8--10~-----8--10~-8~-----6--8~-- 
A|--/10--10---------10------------8--------- 
E|------------------------------------------ 

E|----------------------------------------------------------------- 
B|----------------------------------------------------------------- 
G|----------------------------------------------------------------- 
D|-----8----8h10p8------------------8/10\8~------------------------ 
A|--10--(10)---------10-9-8-6--------(10)--------6-8-8^------6----- 
E|----------------------------8~--8----------6h8---------6h8---8~-- 

E|------------------------------------------ 
B|------------------------------------------ 
G|------------------------------------------ 
D|--/10-----8--10~-----8--10~-8~-----6--8~-- 
A|--/10--10---------10------------8--------- 
E|------------------------------------------ 

E|----------------------------------------------------------------- 
B|----------------------------------------------------------------- 
G|----------------------------------------------------------------- 
D|-----8----8h10p8------------------8/10\8~------------------------ 
A|--10---10---------10-9-8-6---------(10)--------6-8-8^------6----- 
E|----------------------------8~--8----------6h8---------6h8---8~-- 

E|------------------------------------------ 
B|------------------------------------------ 
G|------------------------------------------ 
D|--/10-----8--10~-----8--10~-8~-----6--8~-- 
A|--/10--10---------10------------8--------- 
E|------------------------------------------ 

E|---------------------------------------------------------------- 
B|---------------------------------------------------------------- 
G|-----15----15h17p15--------------------------------------------- 
D|--17----17----------17--15~------8/10\8~------------------------ 
A|----------------------------------(10)--------6-8-8^------6----- 
E|-------------------------------8----------6h8---------6h8---8~-- 

E|------------------------------------------ 
B|------------------------------------------ 
G|------------------------------------------ 
D|--/10-----8--10~-----8--10~-8~-----6--8~-- 
A|--/10--10---(10)--10---(10)-8~--8-----8~-- 
E|------------------------------------------ 
	  

Search Paypal
auto scroll beats size up size down change color hide chords drawings
tab show chords e-chords YouTube Clip e-chords hide all tabs e-chords go to top tab