Enya

Fairytale

Enya

tabs

by  DEIVCAVALCANTI

save to print version add songbook text version e-mail correct tuner
chordsukulelecavacokeyboardtabbassdrumsharmonicaflute Guitar Pro
close

there isn't a video lesson for this song

chords

Fairytale

	  		


  
      Intro   X3 You can go up an octave, but I usually just play 2 
                and stay the same.     
e|---0-0----3--0----------1-1---3-1-0---3-0-------0-0---3-0-5-0-0---3-0------| 
B|--------3-------1--1--------3-------1------3--------3-----------3-----1-0-1| 
G|---------------------------------------------------------------------------| 
D|---------------------------------------------------------------------------| 
A|---------------------------------------------------------------------------| 
E|---------------------------------------------------------------------------| 


   1) 

e|-------0-1--------3-3-1-0-1-0----0----------0-1-------3-3-1-0-1-0----------| 
B|---1-3------3--3---------------3---3----1-3------3-3---------------3-1-----| 
G|---------------------------------------------------------------------------| 
D|---------------------------------------------------------------------------| 
A|---------------------------------------------------------------------------| 
E|---------------------------------------------------------------------------| 

   2)       
  
e|--0-3-5--0-5-3--5-7-8-12-10-7-5---0--5--0-5-3--5-7-8-12-10--7-5--3---------| 
B|---------------------------------------------------------------------------| 
G|---------------------------------------------------------------------------| 
D|---------------------------------------------------------------------------| 
A|---------------------------------------------------------------------------| 
E|---------------------------------------------------------------------------| 
     Repeat 1) 2 times. 2) End on 1) 


| /   slide up 
| \   slide down 
| h   hammer-on 
| p   pull-off 
| ~   vibrato 
| +   harmonic 
| x   Mute note 
| b   Bend 
| pb  Pre-bend 
| br  Bend release 
| pbr Pre-bend release 
| brb Bend release bend 

************************************ 
		  

auto scroll beats size up size down change color hide chords drawings
tab show chords e-chords YouTube Clip e-chords hide all tabs e-chords go to top tab

share