Enter Shikari

Arguing With Thermometers

Enter Shikari

tabs Beginner beginner

by  VSWORLD

save to print version add songbook text version e-mail correct tuner
chordsukulelecavacokeyboardtabbassdrumsharmonicaflute Guitar Pro
close

there isn't a video lesson for this song

chords

Arguing With Thermometers

	  		



d|------------------------------| 
A|------------------------------| 
F|-----------5~~----------------| 
C|-----------2~~----------------| 
G|-----------3~~----------------| 
D|-0h2222-------0-2-5-4-0--2--2-| 


d|-------------------| 
A|-------------------| 
F|-----------5~~-----| 
C|-----------2~~-----| 
G|-----------3~~-----| 
D|-0h2222-------5202-| 


d|-------------------------------------| 
A|-------------------------------------| 
F|-----------5~~-----------------------| 
C|-----------2~~-----------------------| 
G|-----------3~~-----------------------| 
D|-0h2222-------0-2-5-4-0--2--2--22000-| 


d|--------------------------------| 
A|--------------------------------| 
F|-----------5~~------------------| 
C|-----------2~~------------------| 
G|-----------3~~------------------| 
D|-0h2222-------5202----0-2-5-4-0-| 


d|-9-9--9-9-9-------------------9-9--9-9-9-------------------| 
A|-1010-101010-9-9-9-9---10--10-1010-101010-9-9-9-9----------| 
F|-1111-111111-9-9-9-9---9---9--1111-111111-9-9-9-9---9---9--| 
C|-------------11111111--11--11-------------11111111---------|       x4 
G|-----------------------------------------------------------| 
D|-----------------------------------------------------------| 


d|----------------------------------------| 
A|----------------------------------------| 
F|----------------------------------------| 
C|----------------------------------------|       x4 
G|----------------------------------------| 
D|-2-2-2-2-2-2-2-/14-14-14-14-14-14-14-14-| 


d|-9-9--9-9-9-------------------9-9--9-9-9-------------------| 
A|-1010-101010-9-9-9-9---10--10-1010-101010-9-9-9-9----------| 
F|-1111-111111-9-9-9-9---9---9--1111-111111-9-9-9-9---9---9--| 
C|-------------11111111--11--11-------------11111111---------|       x4 
G|-----------------------------------------------------------| 
D|-----------------------------------------------------------| 


d|----------------------------------------| 
A|----------------------------------------| 
F|----------------------------------------| 
C|----------------------------------------|       x4 
G|----------------------------------------| 
D|-2-2-2-2-2-2-2-/14-14-14-14-14-14-14-14-| 


d|-----------------| 
A|-----------------| 
F|-----------------| 
C|-----------------|       x3 
G|-----------------| 
D|-0h2222----------| 


A|-----------------------------------------------| 
F|-----------------------------------------------| 
C|-------------------------------------4---5---4-| 
G|-------------------------------------4---5---4-| 
D|-2--2--2--2-2-2-2-2-2-2-2-2-2-2-2-2--2---3---2-| 
		  

auto scroll beats size up size down change color hide chords drawings
tab show chords e-chords YouTube Clip e-chords hide all tabs e-chords go to top tab

share