Ensiferum

Twilight Tavern

Ensiferum

tabs

by  ANDRSOUZA

save to print version add songbook text version e-mail correct tuner
chordsukulelecavacokeyboardtabbassdrumsharmonicaflute Guitar Pro
close

there isn't a video lesson for this song

chords

Twilight Tavern

	  		


Tuning:EADGBE 

e|---------------------------------------------------------------------------| 
B|---------------------------------------------------------------------------| 
G|---------------------------------------------------------------------------| 
D|-9-9-10-9-7-9-7-9-7-9----------7-9-7-5-7-5-7-5-7---------------------------| 
A|----------------------9-7--9-7-------------------7-5--7-7-9-10-9-10-9------| 
E|---------------------------------------------------------------------------| 

e|---------------------------------------------------------------------------| 
B|---------------------------------------------------------------------------| 
G|---------------------------------------------------------------------------| 
D|-7----7-9-7-9-7-9--7-------------------------------------------------------| 
A|---10----------------10-9-7-5-7--------------------------------------------| 
E|---------------------------------------------------------------------------| 
  intro riff  

e|----------------------------------------------------------------------------| 
B|-8--8-10-8-7-8-7-8-7-8----------7--7-8-7-5-7-5-7-5-7------------------------| 
G|-----------------------9-7--9-7----------------------7-5--7-5--5--7-9-7-9-7-| 
D|----------------------------------------------------------------------------| 
A|----------------------------------------------------------------------------| 
E|----------------------------------------------------------------------------| 

e|---------------------------------------------------------------------------| 
B|-5-5-7-5-7-8--7-5-3-5------------------------------------------------------| 
G|---------------------------------------------------------------------------| 
D|---------------------------------------------------------------------------| 
A|---------------------------------------------------------------------------| 
E|---------------------------------------------------------------------------| 
  
 harmony 
e|---------------------------------------------------------------------------| 
B|---------------------------------------------------------------------------| 
G|---------------------------------------------------------------------------| 
D|-9--7--5--2--3-7-9---------------------------------------------------------| 
A|-7--5--3--0--3-5-7---------------------------------------------------------| 
E|---------------------------------------------------------------------------| 
  base chords  
                                                   2nd time  
e|-------------------------------------------------|--------------------------| 
B|-------------------------------------------------|--------------------------| 
G|-------------------------------------------------|--------------------------| 
D|------------7-7------------7-7--------5----------|--------7-----------------| 
A|------5-----5-5------5-----5-5--5-7-9---9-7-5-7~-|-7-9-10---10-9-7~---------| 
E|-0-00-3-000-----0-00-3-000-----------------------|--------------------------| 
   . ..   ...     . ..   ... 
  this part 2x 

  vocals come in (do whole part 2x) 
e|--------------------------------------------|--------------------------------| 
B|-----------10-12h13p12-10-------------------|--------------------------------| 
G|-9-9-11-12----------------12-11-9-11-7-11-9-|-17-16-14-17-16-14-12-14-12-11--| 
D|--------------------------------------------|--------------------------------| 
A|--------------------------------------------|--------------------------------| 
E|--------------------------------------------|--------------------------------| 
                                             x2 
e|----------------------------------------------------------------------------| 
B|----------------------------------------------------------------------------| 
G|12-9-11-12-14-17-16-14-17-16-14-12-14-12-11-7-9-----------------------------| 
D|----------------------------------------------------------------------------| 
A|----------------------------------------------------------------------------| 
E|----------------------------------------------------------------------------| 
    
  (1:13) 
e|---------------------------------------------------------------------------| 
B|---------------------------------------------------------------------------| 
G|-7-9-11-11-12-14-12-17-16-14-17-16---7-9-11-11-12-14-12-17-16-14-17-16-14--| 
D|---------------------------------------------------------------------------| 
A|---------------------------------------------------------------------------| 
E|---------------------------------------------------------------------------| 
                                     
e|---------------------------------------------------------------------------| 
B|-17-15-13-7-15~--19p17p1517p15p1315p13p1213p12p10--------------------------| 
G|---------------------------------------------------------------------------| 
D|---------------------------------------------------------------------------| 
A|---------------------------------------------------------------------------| 
E|---------------------------------------------------------------------------| 

part before Chorus  
e|----------------------------------------------------------------------------| 
B|----------------------------------------------------------------------------| 
G|----------------------------------------------------------------------------| 
D|------------7-7------------7-7--------5----------------------7-7------------| 
A|------5-----5-5------5-----5-5--5-7-9---9-7-5-7~-------5-----5-5------5-----| 
E|-0-00-3-000-----0-00-3-000------------------------0-00-3-000-----0-00-3-000-| 
   . ..   ...     . ..   ... 

e|---------------------------------------------------------------------------| 
B|---------------------------------------------------------------------------| 
G|---------------------------------------------------------------------------| 
D|-7-7---------7----------------9--------------------------------------------| 
A|-5-5--7-9-10---10-9-7-9-10-12---12-10-9-7----------------------------------| 
E|---------------------------------------------------------------------------| 

  Chorus is just the intro 

  (2:30)                   (2:46)           x4 
e|----------------|--------|----------------|---------------------------------------| 
B|----------------|--------|----------------|-8-7-5-12-10h12p10--10-8-7-13-12h13p12-| 
G|----------------|--------|----------------|---------------------------------------| 
D|------------4-4-|-5-7-9--|----------------|---------------------------------------| 
A|------2-----2-2-|-3-5-7--|------2-----5-7-|---------------------------------------| 
E|-0-00-0-000-----|--------|-0-00-0-000-3-5-|---------------------------------------| 
   . ..   ...                . ..   ... 
                   x2 
e|-----------------|----------------------------------------------------------| 
B|-----------------|-8-7-5-12-10h12p10-10-8-7-13-12h13p12-12-10-8-7-8-5-5~----| 
G|-----------------|----------------------------------------------------------| 
D|-----------------|----------------------------------------------------------| 
A|-------2-----5-7-|----------------------------------------------------------| 
E|--0-00-0-000-3-5-|----------------------------------------------------------| 
    . ..   ... 
e|---------------------------------------------------------------------------| 
B|-8-7-5-12-10h12p10-10-8-7-13-12h13p12-12-10-8-5-7-3-7-8-7-5-12-10h12p10-10-| 
G|---------------------------------------------------------------------------| 
D|---------------------------------------------------------------------------| 
A|---------------------------------------------------------------------------| 
E|---------------------------------------------------------------------------| 

e|-------------------------10-8-12-7-8-10-12-10h12p10-7-7--------------------| 
B|-8-7-13-12h13p12-12-10-8--------------------------------8-7-5-12-10h12p10--| 
G|---------------------------------------------------------------------------| 
D|---------------------------------------------------------------------------| 
A|---------------------------------------------------------------------------| 
E|---------------------------------------------------------------------------| 

                                       (3:18) 
e|-------------------------------------|--------7-----------------------------| 
B|-10-8-7-13-12h13p12-12-10-8-7-8-5-5~-|-5--7-8----8-7-5--7-8--3-5-7--5--7-8--| 
G|-------------------------------------|--------------------------------------| 
D|-------------------------------------|--------------------------------------| 
A|-------------------------------------|--------------------------------------| 
E|-------------------------------------|--------------------------------------| 
                                                   x2 
e|-7------------------------------------------------|-------------------------| 
B|----8-7-5--7-8--3-5-7-----------------------------|-------------------------| 
G|--------------------------------------------------|-------------------------| 
D|--------------------------------------------------|-4-4---------------------| 
A|----------------------5--7-9--3--5-7--2--3-5-3-2-0|-2-2---------------------| 
E|--------------------------------------------------|-------------------------| 
   (3:39)                                                        x3   
e|---------------------------------------------------------------------------| 
B|---------------------------------------------------------------------------| 
G|---------------------------------------------------------------------------| 
D|-----------------7-9-------------------------------------------------------| 
A|-7-7-9-10-9-7--------7-9-10-9-7----7-9-9---5-7-7---3-5-5---5-3-2-----------| 
E|--------------10----------------9--------7-------5-------5-----------------| 
   . . . .  . .  . . . . . .  . . .  . . . . . . . . . . . .  
e|---------------------------------------------------------------------------| 
B|---------------------------------------------------------------------------| 
G|---------------------------------------------------------------------------| 
D|-----------------7-9------------------7-----7-9-10-12-10-12-9-9------------| 
A|-7-7-9-10-9-7--------10-9-7--7--9-10---10-9-----------------7-7------------| 
E|--------------10-----------------------------------------------------------| 
   . . . .  . . .  . . .  . .  

 (4:24)                          3x       
e|--------------------------------|---------------------------------------------------------| 
B|--------------------------------|---------------------------------------------------------| 
G|--------------------------------|---------------------------------------------------------| 
D|------------7-7------------7-7--|--------7---------------9------------------12------------| 
A|------5-----5-5------5-----5-5--|-7-9-10---10-9-7-9-10-12--12-10-9-10-12-14----14-12-10-7-| 
E|-0-00-3-000-----0-00-3-000------|---------------------------------------------------------| 
   . ..   ...     . ..   ...   



(4:41) same thing as intro just everything a step higher 
e|---------------------------------------------------------------------------------| 
B|---------------------------------------------------------------------------------| 
G|---------------------------------------------------------------------------------| 
D|-11-11-12-11-9-11-9-11-9-11-----------9-11-9-7-9-7-9-7-9-------------------------| 
A|----------------------------11-9-11-9--------------------9-7--9-9-11-12-11-12-11-| 
E|---------------------------------------------------------------------------------| 

e|---------------------------------------------------------------------------| 
B|---------------------------------------------------------------------------| 
G|---------------------------------------------------------------------------| 
D|-9----9-11-9-11-9-11--9----------------------------------------------------| 
A|---12-------------------12-11-9-7-9----------------------------------------| 
E|---------------------------------------------------------------------------| 

  (5:07) final part again just jump another step up 
e|---------------------------------------------------------------------------------------------| 
B|---------------------------------------------------------------------------------------------| 
G|---------------------------------------------------------------------------------------------| 
D|-13-13-14-13-11-13-11-13-11-13------------11-13-11-9-11-9-11-9-11----------------------------| 
A|------------------------------13-11-13-11-------------------------11-9--11-11-13-14-13-14-13-| 
E|---------------------------------------------------------------------------------------------| 

e|---------------------------------------------------------------------------| 
B|---------------------------------------------------------------------------| 
G|---------------------------------------------------------------------------| 
D|-11----11-13-11-13-11-13--11-----------------------------------------------| 
A|----14-----------------------14-13-11-9-11---------------------------------| 
E|---------------------------------------------------------------------------| 

************************************ 

| /   slide up 
| \   slide down 
| h   hammer-on 
| p   pull-off 
| ~   vibrato 
| +   harmonic 
| x   Mute note 
| b   Bend 
| pb  Pre-bend 
| br  Bend release 
| pbr Pre-bend release 
| brb Bend release bend 

************************************ 
		  

See also:

tabs Nightwish - Wishmaster tabs Nightwish - The Phantom Of The Opera tabs Nightwish - She is My Sin tabs Stratovarius - Hold On to Your Dream tabs HIM - Wicked Game (acustica) tabs Nightwish - Creek Mary's Blood
e-chords

Other versions:

tabs Ensiferum - Twilight Tavern
auto scroll beats size up size down change color hide chords drawings
tab show chords e-chords YouTube Clip e-chords hide all tabs e-chords go to top tab

share