Endless Pride

Vem?

Endless Pride

tabs

by  ANG-LETRA

save to print version add songbook text version e-mail correct tuner
chordsukulelecavacokeyboardtabbassdrumsharmonicaflute Guitar Pro
close

there isn't a video lesson for this song

chords

Vem?

	  		

Intro: 

E|------------------------------------------------------------------| 
B|------------------------------------------------------------------| 
G|------------------------------------------------------------------| 
D|------------------------------7--------------------------3-2------| 
A|------2h3-----2h3-----2h3-----5------2h3-----2h3-----2h3-----3-2--| 
E|--0-0-----0-0-----0-0-----0-0----0-0-----0-0-----0-0--------------| 

E|------------------------------------------------------| 
B|------------------------------------------------------| 
G|------------------------------------------------------| 
D|--2----------2----2----------3----------3----3--5--3--| 
A|--2----------2----2----------3----------3----3--------| 
E|--0----0--0--0----0----0--0--1----1--1--1----1--------| 

E|---------------------------------------------------| 
B|---------------------------------------------------| 
G|---------------------------------------------------| 
D|---------------------------------------------------| 
A|-2-------------5-------------7-------------8\7/8\7-| 
E|-0-0-0-0-0-0-0-3-0-0-0-0-0-0-5-0-0-0-0-0-0-6\5/6\5-| 

E|---------------------------------------------------| 
B|---------------------------------------------------| 
G|---------------------------------------------------| 
D|---------------------------------------------------| 
A|-2-------------5-------------7-------------8\7/8\7-| 
E|-0-------------3-------------5-------------6\5/6\5-| 

Verse: 

E|---------------------------------------------------| 
B|---------------------------------------------------| 
G|---------------------------------------------------| 
D|---------------------------------------------------| 
A|-2-------------5-------------7-------------8\7/8\7-| 
E|-0-0-0-0-0-0-0-3-0-0-0-0-0-0-5-0-0-0-0-0-0-6\5/6\5-| 

Between verses: 

E|------------------------------------------------------| 
B|------------------------------------------------------| 
G|------------------------------------------------------| 
D|--2----------2----2----------3----------3----3--5--3--| 
A|--2----------2----2----------3----------3----3--------| 
E|--0----0--0--0----0----0--0--1----1--1--1----1--------| 

Pre Chorus: 

E|---------------------------------------------------------| 
B|---------------------------------------------------------| 
G|---------------------------------------------------------| 
D|-9-------------7-------------5-------------4-------------| 
A|-7-0-0-0-0-0-0-5-0-0-0-0-0-0-3-0-0-0-0-0-0-2-0-0-0-0-0-0-| 
E|---------------------------------------------------------| 

Chorus: 

E|--------------------------------------------------------------------------------------------| 
B|--------------------------------------------------------------------------------------------| 
G|--------------------------------------------------------------------------------------------| 
D|--2--------2--2--------5--------7--7--8\7/8\7--2--------2--2--------5--------7--7--8\7/8\7--| 
A|--2--------2--2--------5--------7--7--8\7/8\7--2--------2--2--------5--------7--7--8\7/8\7--| 
E|--0--0--0--0--0--0--0--3--3--3--5--5--6\5/6\5--0--0--0--0--0--0--0--3--3--3--5--5--6\5/6\5--| 

E|--------------------------------------------------------------------------------------------| 
B|--------------------------------------------------------------------------------------------| 
G|--------------------------------------------------------------------------------------------| 
D|--2--------2--2--------5--------7--7--8\7/8\7--2--------------------2-----------------------| 
A|--2--------2--2--------5--------7--7--8\7/8\7--2--------------------2-----------------------| 
E|--0--0--0--0--0--0--0--3--3--3--5--5--6\5/6\5--0--------------------0-----------------------| 
		  

See also:

tabs Ira! - Poço de Sensibilidade (Solo - Acustico Mtv) tabs Deep Purple - Smoke On The Water tabs Deep Purple - Smoke on the water (intro) tabs Ira! - Eu Quero Sempre Mais (Com Pitty, intro) tabs Deep Purple - Smoke on the Water (ver. 2) tabs Deep Purple - Knocking At Your Back Door
e-chords

Other versions:

tabs Harpa Cristã - Vem A Cristo tabs Harpa Cristã - Vem A Deus tabs Harpa Cristã - Vem A Jesus, Ó Perdido tabs Harpa Cristã - Vem A Mim, Pecador tabs Harpa Cristã - Vem A Teu Salvador tabs Harpa Cristã - Vem Cear
auto scroll beats size up size down change color hide chords drawings
tab show chords e-chords YouTube Clip e-chords hide all tabs e-chords go to top tab

share