Endless Pride

Totalt Raseri

Endless Pride

tabs

by  ROBEPOIEL

save to print version add songbook text version e-mail correct tuner
chordsukulelecavacokeyboardtabbassdrumsharmonicaflute Guitar Pro
close

there isn't a video lesson for this song

chords

Totalt Raseri

	  		

Intro/verse/Bridge: 
E|------------------------------------------------------| 
B|------------------------------------------------------| 
G|--2--2-2--2-2-----------------------------------------| 
D|--0--0-0--0-0--2--2-2--2-2--4--4-4--4-4---------------| 
A|---------------0--0-0--0-0--2--2-2--2-2--4--4-4--4-4--| 
E|-----------------------------------------2--2-2--2-2--| 

E|------------------------------------------------------| 
B|------------------------------------------------------| 
G|---------------2--2-2--2-2----------------------------| 
D|---------------0--0-0--0-0---------------2--2-2--2-2--| 
A|--5--5-5--5-5---------------2--2-2--2-2--0--0-0--0-0--| 
E|--3--3-3--3-3---------------0--0-0--0-0---------------| 

Between verses 
E|-----------------------------------------| 
B|-----------------------------------------| 
G|-----------------------------------------| 
D|--2--2-2--2-2--2--2-2--2-2--2--2-2--2-2--| 
A|--0--0-0--0-0--0--0-0--0-0--0--0-0--0-0--| 
E|-----------------------------------------| 

Chorus: 

E|------------------------------------------------------| 
B|------------------------------------------------------| 
G|---------------2--2-2--2-2---------------4----4----4--| 
D|--4--4-4--4-4--0--0-0--0-0--2--2-2--2-2--2----2----2--| 
A|--2--2-2--2-2---------------0--0-0--0-0---------------| 
E|------------------------------------------------------| 

After Choruses: 
E|------------------------------------------------------| 
B|------------------------------------------------------| 
G|--4--4-4--4-4--4--4-4--4-4--4--4-4--4-4--4--4-4--4-4--| 
D|--2--2-2--2-2--2--2-2--2-2--2--2-2--2-2--2--2-2--2-2--| 
A|------------------------------------------------------| 
E|------------------------------------------------------| 

Outro: 

E|--2--2---2--2---0--0---0--0---2--2---2--2---2--2---2--2--| 
B|--3--3---3--3---2--2---2--2---3--3---3--3---2--2---2--2--| 
G|--2--2---2--2---2--2---2--2---4--4---4--4---2--2---2--2--| 
D|--0--0---0--0---2--2---2--2---4--4---4--4---4--4---4--4--| 
A|----------------0--0---0--0---2--2---2--2---4--4---4--4--| 
E|--------------------------------------------2--2---2--2--| 

E|--3--3---3--3---2--2---2--2---4--4---4--4---0--0---0--0--| 
B|--3--3---3--3---3--3---3--3---5--5---5--5---2--2---2--2--| 
G|--4--4---4--4---2--2---2--2---4--4---4--4---2--2---2--2--| 
D|--5--5---5--5---0--0---0--0---2--2---2--2---2--2---2--2--| 
A|--5--5---5--5-------------------------------0--0---0--0--| 
E|--3--3---3--3--------------------------------------------| 
		  

See also:

tabs Ira! - Poço de Sensibilidade (Solo - Acustico Mtv) tabs Deep Purple - Smoke On The Water tabs Deep Purple - Smoke on the water (intro) tabs Ira! - Eu Quero Sempre Mais (Com Pitty, intro) tabs Deep Purple - Smoke on the Water (ver. 2) tabs Deep Purple - Knocking At Your Back Door
e-chords

Other versions:

tabs Endless Pride - Totalt Raseri
auto scroll beats size up size down change color hide chords drawings
tab show chords e-chords YouTube Clip e-chords hide all tabs e-chords go to top tab

share