Endless Pride

Jag Hatar Er

Endless Pride

tabs

by  ANDRSOUZA

save to print version add songbook text version e-mail correct tuner
chordsukulelecavacokeyboardtabbassdrumsharmonicaflute Guitar Pro
close

there isn't a video lesson for this song

chords

Jag Hatar Er

	  		Endless Pride : Jag hatar er! 

Intro: (start with a pickslide) 

E|----------------------------------------------------------------------------------------------| 
B|----------------------------------------------------------------------------------------------| 
G|----------------------------------------------------------------------------------------------| 
D|--5--5--5--5-5-5-5-5--5-------------------------2--2--2--2-2-2-2-2--2-------------------------| 
A|--3--3--3--3-3-3-3-3--3--2--2--2--2-2-2-2-2--2--0--0--0--0-0-0-0-0--0--2--2--2--2-2-2-2-2--2--| 
E|-------------------------0--0--0--0-0-0-0-0--0-------------------------0--0--0--0-0-0-0-0--0--| 

Verse: 

E|----------------------------------------------------------------------------------------------| 
B|----------------------------------------------------------------------------------------------| 
G|----------------------------------------------------------------------------------------------| 
D|--5--5--5--5-5-5-5-5--5-------------------------2--2--2--2-2-2-2-2--2-------------------------| 
A|--3--3--3--3-3-3-3-3--3--2--2--2--2-2-2-2-2--2--0--0--0--0-0-0-0-0--0--2--2--2--2-2-2-2-2--2--| 
E|-------------------------0--0--0--0-0-0-0-0--0-------------------------0--0--0--0-0-0-0-0--0--| 


E|----------------------------------------------------------------------------------------------| 
B|----------------------------------------------------------------------------------------------| 
G|----------------------------------------------------------------------------------------------| 
D|------------------------------------------------5--5--5--5-5-5-5-5--5--5--5--5--5-5-5-5-5--5--| 
A|--3--3--3--3-3-3-3-3--3--5--5--5--5-5-5-5-5--5--3--3--3--3-3-3-3-3--3--3--3--3--3-3-3-3-3--3--| 
E|--1--1--1--1-1-1-1-1--1--3--3--3--3-3-3-3-3--3------------------------------------------------| 

Chorus: 

E|---------------------------------------------------------------------------------| 
B|---------------------------------------------------------------------------------| 
G|---------------------------------------------------------------------------------| 
D|--5--5--5---5--5--5-----------------------3--3--3---3--3--3----------------------| 
A|--3--3--3---3--3--3---5--5--5---5--5--5---1--1--1---1--1--1---3--3--3---3--3--3--| 
E|----------------------3--3--3---3--3--3-----------------------1--1--1---1--1--1--| 
		  

See also:

tabs Scalene - Milhares Como Eu tabs Deep Purple - Never A Word tabs Deep Purple - Smoke On The Water (Intro + solo 01) tabs Ira! - Flerte Fatal (intro e solo) tabs Deep Purple - Deep Purple - Smoke On The Water tabs Deep Purple - Burn
e-chords

Other versions:

tabs Endless Pride - Jag Hatar Er
auto scroll beats size up size down change color hide chords drawings
tab show chords e-chords YouTube Clip e-chords hide all tabs e-chords go to top tab

share